Song name
# A B C D E F G H I J K L M N O P Q R S T U V W X Y Z

Slapshock - Carino Brutal tab

http://www.facebook.com/profile.php?ref=profile&id=1353443910#!/profile.php?
ref=profile&id=1353443910

f_sario@yahoo.com
09283150081



Wag ng magreklamo...

TUNING - Drop C

*=palm mute
p-pull-off
h-hammer
/-slide
~-let ring

Intro-
|-------------------------------------------------------------------------|
|-------------------------------------------------------------------------|
|------------------------------------------------3p2----------------------|
|-0~--------1-0~---------3-1-0~----------1-0~---------3p0--5--------------|2x
|-0~--------1-0~---------3-1-0~----------1-0~---------------6--5p0--------|
|-0~---0000-1-0~----0000-3-1-0~----0000--1-0~-----------------------------|
       ****         ****           ****

Verse- 2x
INUKIT...
|----------------------------------------------|-------------------------------------------------|
|----------------------------------------------|-------------------------------------------------|
|----------------------------------------------|-------------------------------------------------|
|----------------------------------------------|----------------------------------------5--------|
|--5--------6-5-------8-5---------6p5-x-8p5--3-|-5--------6-5-------------------3/5h6p5---6--5/6-|
|-----0000-------0000------000000-----x--------|-----0000-------0000--355555555------------------|
      ****       ****      ******                    ****       **** 

   
Refrain-
LUMUHA...
|-------------------------------------------------------------------------|
|-------------------------------------------------------------------------|
|-101010101010101010101010-12121212-101010101010101010101010-12121212-----|
|-------------------------------------------------------------------------|
|-8-8-8-8-8-8-8-8-8-8-8-8--10101010-8-8-8-8-8-8-8-8-8-8-8-8--10101010-----|
|-------------------------------------------------------------------------|

|-------------------------------------------------------------------------|
|-------------------------------------------------------------------------|
|-------------------------------------------------------------------------|
|-------------------------------------------------------------------------|
|-00-00-0-000-00-00000-00-0-00000------00-00-0-000-00-00000-00-0-00000----|*
|-00-00-0-000-00-00000-00-0-00000------00-00-0-000-00-00000-00-0-00000----|*
  
UMAAPOY...
|-------------------------------------------------------------------------|
|-------------------------------------------------------------------------|
|-101010101010101010101010-12121212-10-12-10--14-12-14--15-14-12-17~------|
|-------------------------------------------------------------------------|
|-8-8-8-8-8-8-8-8-8-8-8-8--10101010-12-10-8---12-10-12--13-12-10-15~------|
|-------------------------------------------------------------------------|

|-------------------------------------------------------------------------|
|-------------------------------------------------------------------------|
|-------------------------------------------------------------------------|
|-------------------------------------------------------------------------|
|-00-00-0-000-00-00000-00-0-00000------00-00-0-000-00-00000-00-0-00000----|*
|-00-00-0-000-00-00000-00-0-00000------00-00-0-000-00-00000-00-0-00000----|*

MAGULO ANG ISIP...
|-------------------------------------------------------------------------|
|-------------------------------------------------------------------------|
|-101010101010101010101010-12121212-10-12-10--14-12-14--15-14-12-17~------|
|---------------------------------------------------------------------0~--|
|-8-8-8-8-8-8-8-8-8-8-8-8--10101010-12-10-8---12-10-12--13-12-10-15~--0~--|
|---------------------------------------------------------------------0~--|

|-------------------------------------------------------------------------|
|-------------------------------------------------------------------------|
|-------------------------------------------------------------------------|
|-------------------------------------------------------------------------|
|-------------------------------------------------------------------------|
|--0-12//////////---0-12//////////---0-12//////////-----------------------|
   *                *                *  

Chorus-
Ginapos...
|-------------------------------------------------------------------------------------------|
|-------------------------------------------------------------------------------------------|
|----10-9------10-9---55/7----------12-10-----12-10--99/10-------14-12--------15-14--12-14--|
|---------------------------(2x)------------------------------------------------------------|
|-00-8--7--000-8--7---33/5-------88-10-8--888-10-8---77/8--------12-10--------13-12--10-12--|
|-00-------000-------------------88-------888---------------1010-------101010---------------|

Do refrain then chorus(2x)-

Bridge-
GINAPOS MO...
|-------------------------------------------------------------------------|
|-------------------------------------------------------------------------|
|-101010101010101010101010-12121212-101010101010101010101010-12121212-----|
|-------------------------------------------------------------------------|
|-8-8-8-8-8-8-8-8-8-8-8-8--10101010-8-8-8-8-8-8-8-8-8-8-8-8--10101010-----|
|-------------------------------------------------------------------------|

|-----------------------------------------------------------|
|-----------------------------------------------------------|
|-----------------------------------------------------------|
|-------14-15-14-------(3x)--15-14-------14-12--------------|
|-12-15----------15-12-------------15-12------12-15---------|
|-----------------------------------------------------------|
  *  *  *  *  *  *  *        *  *   *  *  *  * * *
|----------------------------------------------------------------|
|----------------------------------------------------------------|
|--------------------------12------------------1212121212121212--|
|-------14-15-14-------(3x)--15-12-15-15-12-12-------------------|
|-12-15----------15-12-------------------------1010101010101010--|
|----------------------------------------------------------------|
  *  *  *  *  *  *  *      *  *  *  *  *  *  *


DO 3x
|----------------------------------------------|-------------------------------------------------|
|----------------------------------------------|-------------------------------------------------|
|----------------------------------------------|-------------------------------------------------|
|----------------------------------------------|----------------------------------------5--------|
|--5--------6-5-------8-5---------6p5-x-8p5--3-|-5--------6-5-------------------3/5h6p5---6--5/6-|
|-----0000-------0000------000000-----x--------|-----0000-------0000--355555555------------------|
      ****       ****      ******                    ****       **** 


|-------------------------------------------------------------------------|
|-------------------------------------------------------------------------|
|-101010101010101010101010-12121212---------------------------------------|
|-------------------------------------------------------------------------|
|-8-8-8-8-8-8-8-8-8-8-8-8--10101010---------------------------------------|
|-------------------------------------------------------------------------|

Chorus-

Outro-
CARIņO BRUTAL!!!...
|-----------------------------------------------|
|-----------------------------------------------|
|-----------------------------------------------|
|-1p0-1p0-1~--1p0-1p0-1~--1p0-1p0-1~------------|
|-1p0-1p0-1~--1p0-1p0-1~--1p0-1p0-1~------------|
|-1p0-1p0-1~--1p0-1p0-1~--1p0-1p0-1~--11111111--|
                                      ********

|-----------------------------------------------|
|-----------------------------------------------|
|-----------------------------------------------|
|-1p0-1p0-1~--1p0-1p0-1~--1p0-1p0-1~------------|
|-1p0-1p0-1~--1p0-1p0-1~--1p0-1p0-1~------------|
|-1p0-1p0-1~--1p0-1p0-1~--1p0-1p0-1~--12//////--|

|-----------------------------------------------|
|-----------------------------------------------|
|-----------------------------------------------|
|-1p0-1p0-1~--1p0-1p0-1~--1p0-1p0-1~------------|
|-1p0-1p0-1~--1p0-1p0-1~--1p0-1p0-1~------------|
|-1p0-1p0-1~--1p0-1p0-1~--1p0-1p0-1~--11111111--|
                                      ********
|-----------------------------------------------|
|-----------------------------------------------|
|-----------------------------------------------|
|-1p0-1p0-1~--1p0-1p0-1~--1p0-1p0-1~---------0--|
|-1p0-1p0-1~--1p0-1p0-1~--1p0-1p0-1~---------0--|
|-1p0-1p0-1~--1p0-1p0-1~--1p0-1p0-1~--11111110--|
                                      ********
Tap to rate this tab
 
# A B C D E F G H I J K L M N O P Q R S T U V W X Y Z