Song name
# A B C D E F G H I J K L M N O P Q R S T U V W X Y Z

Slapshock - Batang Palaboy tab

Help us improve GuitareTab! Take a short survey!
drop d tuning
v
---------------------
---0-----0----0----0-
--0-----0----0----0--
-7-----7----7----7---
---------------------
---------------------

---------------------
---0-----0---0-------
--0-----0---0---------
-6----6----6---------
---------------------
---------------------

---------------------
-----0----0----0-----
----0----0----0------
--5-----5----5-------
---------------------
---------------------
cro

---------------------
---------------------
---------------------
0---2\---0---2\------
0---2\---0---2\------
0---2\---0---2\------

\-side down
Related for Batang Palaboy tab