Song name
# A B C D E F G H I J K L M N O P Q R S T U V W X Y Z

Slapshock - Back Home tab

-------------------------------------------------------------------------------
                             Back Home - Slapshock
-------------------------------------------------------------------------------
Tabbed by:fukupsycho
Email/friendster:jdc_cacdac@yahoo.com

Tuning:dropped D

intro
e|-----------------------|
B|-----------------------|
G|-7---------------------|4x
D|-7-0-3-5-7-8-----------|
A|-5-0-3-5-7-8-----------|
D|---0-3-5-7-8-----------|

2nd guitar
e|-----------------------|
B|-----------------------|
G|-7-4-6-7-9-11----------|
D|-x-x-x-x-x-x-----------|
A|-5-2-4-5-7-9-----------|
D|-----------------------|

verse
e|---------------------------------------------------------------------------|
B|---------------------------------------------------------------------------|
G|-----------7-9-----------1013-----------7-9-6-99999999888888888------------|
D|-----------x-x-----------x-x------------x-x-x-xxxxxxxxxxxxxxxxx------------|
A|-----------5\7-----------8\11-----------5\7/4-77777777666666666------------|
D|-0-0-00000-----0-0-00000------0-0-00000------------------------------------|

e|---------------------------------------------------------------------------|
B|---------------------------------------------------------------------------|
G|-----------7-9-----------7-9------------7-9-6-99999999888888888------------|
D|-----------x-x-----------x-x------------x-x-x-xxxxxxxxxxxxxxxxx------------|
A|-----------5\7-----------5\7------------5\7/4-77777777666666666------------|
D|-0-0-00000-----0-0-00000------0-0-00000------------------------------------|


e|------------------------------------------------------------------------------------|
B|------------------------------------------------------------------------------------|
G|-----------999888666--------------333555-----------999888666--------------333666----|
D|--------------------------------555--------------------------------------555--------|
A|------------------------------------------------------------------------------------|
D|-000000000------------000000000-----------000000000------------000000000------------|


chorus
e|---------------------------------------------------------------------------|
B|---------------------------------------------------------------------------|
G|-------------------------------------7-9-1014-109-7-9-1012-109-------------|2x
D|-----0-0------0-0------0-0------0-0--x-x-x-x--x-x-x-x-x-x--x-x-------------|
A|-12--0-0--12--0-0--12--0-0--10/-0-0--5-7-8-12-8-7-5-7-8-10-8-7-------------|
D|-12/-0-0--12/-0-0--12/-0-0--10/-0-0----------------------------------------|


after 2nd chorus

e|---------------------------------------------------------------------------|
B|---------------------------------------------------------------------------|
G|---------------------------------------------------------------------------|
D|---------------------------------------------------------------------------|
A|-5-7-8-12-8-7-5-7-8-10-8-7--5-7-8-12-8-7-5-7-8-10-8-7----------------------|
D|--0-0-0--0-0-0-0-0-0--0-0----0-0-0--0-0-0-0-0-0--0-0-----------------------|

2nd guitar
e|---------------------------------------------------------------------------|
B|---------------------------------------------------------------------------|
G|-----------------------------------------7-9-1012-109----------------------|
D|-----------------------------------------x-x-x-x--x-x----------------------|
A|-----------------------------------------5-7-8-10-8-7----------------------|
D|---------------------------------------------------------------------------|

e|---------------------------------------------------------------------------|
B|---------------------------------------------------------------------------|
G|----5h6----7h8-----8h9------------------|4x then---------------------------| 
D|---------------------------------------------------------------------------|
A|-00-----000----000------0000000000---------------2222222222----------------|
D|-00-----000----000------0000000000---------------2222222222----------------|

outro

e|---------------------------------------------------------------------------|
B|---------------------------------------------------------------------------|
G|----5h6----7h8-----8h9------------------|3x then---------------------------| 
D|---------------------------------------------------------------------------|
A|-00-----000----000------0000000000---------------222222222222222-----------|
D|-00-----000----000------0000000000---------------222222222222222-----------|

 may nag-request, sana tama... 
Tap to rate this tab
 
# A B C D E F G H I J K L M N O P Q R S T U V W X Y Z