Song name
# A B C D E F G H I J K L M N O P Q R S T U V W X Y Z

Slapshock - Misterio tab

ok this is the tab for: Misterio - Slapshock

the string tuning is:
d
b
f
c
g
c
so basically just u could just Drop D if u want but the tuning will
sound higher than the actual song itself...

the song is pretty easy to play so i dont think you'll have any trouble finishing this song...

symbols:
* - palm mute(if u know wat that is)
~ - let ring
# - guess how these ones r plucked/strummed coz i couldnt be bothered to put it in
> - decreasing volume

Intro: Both Guitars
|----------------------------------------------|
|----------------------------------------------|
|----------------------------------------------|
|------------------------------        repeat--| 4x
|---5---8---7---10--8---7---8~~----------------|
|-0---0---0---0---0---0---0--------------------|
  *   *   *   *   *   *   *

Verse: Both Guitars
|----------------------------------------------|
|----------------------------------------------|
|----------------------------------------------|
|-0-0-----0-0---------10~~-----10~~    repeat--| 2x
|-0-0-----0-0---------8~~~-----8~~~------------|
|-0-0-000-0-0-000-88-8-----88-8----------------|
      ***     *** ** *     ** *

Pre-Chorus: Guitar 1
|----------------------------------|
|----------------------------------|
|----------------------------------|
|---12--15--14--18--15--14--15~----|    repeat 8x
|----------------------------------|
|-0---0---0---0---0---0---0--------|
  *   *   *   *   *   *   *

Pre-Chorus: Guitar 2
|----------------------------------               ~|
|----------------------------------                |
|----------------------------------                |
|----------------------------------    repeat 2x   |
|----------------------------------                |
|-0-0-0-0-0-0-0-0-0-0-0-0-0-0-0----                |
                                                   }--repeat 2x together
|----------------------------------                |
|----------------------------------                |
|----------------------------------                |
|----------------------------------    repeat 2x   |
|----------------------------------                |
|-8-8-8-8-8-8-8-8-8-8-8-8-8-8-8----               ~|

Chorus: Both Guitars
|----------------------------------------------|
|----------------------------------------------|
|----------------------------------------------|
|-0~~~8~~10~~~12--12--8---8---10~~~    repeat--| 2x
|-0~~~8~~10~~~12--12--8---8---10~~~------------|
|-0~~~8~~10~~~12--12--8---8---10~~~------------|
              #   #   #   #   #

Verse: Both Guitars
|----------------------------------------------|
|----------------------------------------------|
|----------------------------------------------|
|-0-0-----0-0---------10~~-----10~~    repeat--| 2x
|-0-0-----0-0---------8~~~-----8~~~------------|
|-0-0-000-0-0-000-88-8-----88-8----------------|
      ***     *** ** *     ** *

Pre-Chorus: Guitar 1
|----------------------------------|
|----------------------------------|
|----------------------------------|
|---12--15--14--18--15--14--15~----|    repeat 8x
|----------------------------------|
|-0---0---0---0---0---0---0--------|
  *   *   *   *   *   *   *

Pre-Chorus: Guitar 2
|----------------------------------               ~|
|----------------------------------                |
|----------------------------------                |
|----------------------------------    repeat 2x   |
|----------------------------------                |
|-0-0-0-0-0-0-0-0-0-0-0-0-0-0-0----                |
                                                   }--repeat 2x together
|----------------------------------                |
|----------------------------------                |
|----------------------------------                |
|----------------------------------    repeat 2x   |
|----------------------------------                |
|-8-8-8-8-8-8-8-8-8-8-8-8-8-8-8----               ~|

Chorus: Both Guitars
|----------------------------------------------|
|----------------------------------------------|
|----------------------------------------------|
|-0~~~8~~10~~~12--12--8---8---10~~~    repeat--| 2x
|-0~~~8~~10~~~12--12--8---8---10~~~------------|
|-0~~~8~~10~~~12--12--8---8---10~~~------------|
              #   #   #   #   #

Bass Intro to the solo: Both Guitars
|----------------------------------|
|----------------------------------|
|----------------------------------|
|0~~~~~~~~~~~~~~~~~~~~~~~~~~~~~~~~~
|0~~~~~~~~~~~~~~~~~~~~~~~~~~~~~~~~~
|0~~~~~~~~~~~~~~~~~~~~~~~~~~~~~~~~~
 > > > > > > > > > > > > > > > > >

Solo: Guitar 1
|------------------------------------17----------|
|14-14-16-14-17-14-14-16-14-17-14-14----14-17----|
|------------------------------------------------|
|------------------------------------------------|    repeat 16x
|------------------------------------------------|
|------------------------------------------------|

Solo: Guitar 2
|------------------------------------------------|
|14-14-17-14-19-14-17-14-19-14-17-14-17-19-17----|
|------------------------------------------------|
|------------------------------------------------|    repeat 8x
|------------------------------------------------|
|------------------------------------------------|

|------------------------------------------------|
|------------------------------------------------|
|------------------------------------------------|
|0-----------0-----------0---------------3-2-----|
|0-----------0-----------0---------------3-2-----|
|0-----------0-----------0---------------3-2-----|

|------------------------------------------------|
|------------------------------------------------|
|------------------------------------------------|
|0-----0-0---0-----0-0---0-------8---8---8-------|    repeat 4x
|0-----0-0---0-----0-0---0-------8---8---8-------|
|0-0-0-0-0-0-0-0-0-0-0-0-0-0-0-0-8-0-8-0-8-0-----|
   * *     *   * *     *   * * *   *   *   *

then just repeat the chorus and then the intro...

please leave a comment...

I have a video of me, Hypher08, playing this in youtube.com

just check out my profile: http://www.youtube.com/profile?user=Hypher08

if u want to add me on friendser.com feel free to do so...

hypher08@hotmail.com
masterhypher08@yahoo.co.uk

and also check out my band's website: www.deathbyboanthropy.piczo.com
Tap to rate this tab
# A B C D E F G H I J K L M N O P Q R S T U V W X Y Z