Guitaretab - guitar tabs
Song name
# A B C D E F G H I J K L M N O P Q R S T U V W X Y Z

Slapshock - Burn My Skin tab

Song: Burn my skin (acoustic)
Artist: Slapshock 
(Kuha k 2 dun sa MTV lokal, nung nag perform cla ng acoustic ng anino mo at ng song n2
way back nung 2002 p ata,ala kc gwa ng tab kaya gwa ako,pro parang pareho lang dun sa
11-41 album, pakinggan nalang. Pagkatapos ng fuck you(remix) yung burn my skin, hidden
track 2. Kung cno meron may bass tab ng song n 2,pls...pakipost nman d2 sa site na ito
o di kaya sa aking..email)

email: auxhre_11@yahoo.com
Legend:	
/ :slide up

Intro/verse: (strumming pattern not shown)

    C5     G#5
-----------------------
-----------------------
---5-------------------
---5------6------------
---3------6------------
----------4------------
[ Tab from: http://www.guitaretab.com/s/slapshock/55473.html ]
chorus:
---5---5---6-6/9---6--5-----
---5---5---6-6/9---6--5-----
---5---7---8-8/10--8--7-----	(2x)
---5---5---6-6/9---6--5-----
-----------------------------
-----------------------------

----5----------------
----5----------------
----5----------------	(strumming ito, not shown again)
----5---------6------
--------------6------
--------------4------

Bridge: (strumming not shown again, figure out how it is strummed, kasi may violin dun,)
    C5    G#5
-----------------------
-----------------------
---5-------------------
---5------6------------
---3------6------------
----------4------------

song structure:
intro/verse
chorus
intro/verse
chorus
bridge
chorus
Related for Burn My Skin tab