Song name
# A B C D E F G H I J K L M N O P Q R S T U V W X Y Z

Slapshock - March Of The Ants tab

Title: March Of the Ants
Artist: Slapshock
Tabbed by: Galera, Mark Jesson
Text me: 09198408399

                  This is the NEw Song of Slapshock
                 Please Support this song...Ganda nito e..hahaha
                      Slapshock Rules!.

Tuning: Drop D

Intro:

e--------------------------------------------|
b--------------------------------------------|
g-8/9------------------------------8888/99---|  2x
D-x/x--777--6666--7777--666--7777--xxx/xx----|
A-6/7--777--4444--7777--444--7777--666/77----|
D------777--------7777-------7777------------|

Verse:

e-------------------------------------------|
b-------------------------------------------|
g---6666----------------6666-------888/9----| 2x
D---6666---777--666-66--6666--777--xxx/x----|
A---4444---777--666-66--4444--777--666/7----|
D----------777--666-66--------777-----------|


Chorus:

e---------------------------------------------------|
b---------------------------------------------------|
g-666-----------6666---------6666-------888/99------|  2x
D-666----777----6666--7777---6666--777--xxx/xx------|
A-444----777----4444--7777---4444--777--666/77------|
D--------777----------7777---------777--------------|


Verse:

e-------------------------------------------|
b-------------------------------------------|
g---6666----------------6666-------888/9----| 2x
D---6666---777--666-66--6666--777--xxx/x----|
A---4444---777--666-66--4444--777--666/7----|
D----------777--666-66--------777-----------|


Chorus:

e---------------------------------------------------|
b---------------------------------------------------|
g-666-----------6666---------6666-------888/99------|  2x
D-666----777----6666--7777---6666--777--xxx/xx------|
A-444----777----4444--7777---4444--777--666/77------|
D--------777----------7777---------777--------------|

Screamo part:

e--------------------------|-------------------------------|
b--------------------------|-------------------------------|
g--6-------6------6--------|--66------66-------66----------|
D--6--8p9--6-8p9--6--8p9---|--66--8p9-66--8p9--66----------|
A--4-------4------4--------|--44------44-------44----------|
D--------------------------|-------------------------------|


Then Palm Mute:

Then 

Chorus:

e---------------------------------------------------|
b---------------------------------------------------|
g-666-----------6666---------6666-------888/99------|  2x
D-666----777----6666--7777---6666--777--xxx/xx------|
A-444----777----4444--7777---4444--777--666/77------|
D--------777----------7777---------777--------------|
Tap to rate this tab
# A B C D E F G H I J K L M N O P Q R S T U V W X Y Z