Song name
# A B C D E F G H I J K L M N O P Q R S T U V W X Y Z

Slapshock - Slap Vs Freak tab

Yo!! This is my first tab submitted to this site..So just f***ing enjoy! Peace we out!!

drop d: E B G D A D

Intro:

E|------------------|
B|------------------|
G|------------------| (4x) 
D|------------------|
A|-5-555-5-5-5555-5-|
D|------------------|

Verse:

E|------------|
B|--6-5-8-6-5-|
G|-7-7-7-7-7--|
D|------------| (4x)
A|------------|
D|------------|

E|--------------------------|
B|--------------------------|
G|--------------------------|
D|--------------------------| (4x)
A|-5-55567--5--55567--5h6p5-|
D|--------------------------|

E|------------|
B|--6-5-8-6-5-|
G|-7-7-7-7-7--|
D|------------| (4x)
A|------------|
D|------------|

Chorus:
E|-x-x-x-xxx-x-x-|
B|-x-x-x-xxx-x-x-|
G|-7-7-7-333-x-x-|
D|-7-7-7-333-7-7-| (4x)
A|-5-5-5-111-7-7-|
D|-----------5-5-|

Verse 2: (Still the same as verse 1)

Bridge:

E|----------------|
B|----------------|
G|-7-7777-77-7777-|
D|-7-7777-77-7777-| (16x)
A|-5-5555-55-5555-|
D|----------------|

That's all..Pls rate if you wish to..Peace!
Tap to rate this tab
# A B C D E F G H I J K L M N O P Q R S T U V W X Y Z