Song name
# A B C D E F G H I J K L M N O P Q R S T U V W X Y Z

Slapshock - Sgt Trigger tab

Sgt. Trigger by Slapshock
Album: 4th Degree Burn
Tabbed by: Tjay17
Tuning: Drop D (DADGBE)

1st tab ko po 2!!!! nyar...

You can play this song without relying on the lead guitar..
You may team it up with the bass guitar..^^

I'm 99.9% positive this is the right way to play this song....
Enjoy, Slapshock Fans!!! Go RaKiZtA! Metal Rulez!!!!!!!!!!

Play d darn whole song with distortion..hehehe

Legend:
* Palm muted
^ Bent string
/ Slide up
\ Slide down
~ Let Ring

Note: bend the G string with more force than the B String

Intro:
|------------------------------------|
|----------8---------8--8--8--8~-----|
|---------11--------11-11-11-11~-----| Repeat 10x
|--0-0--0----0-0--0------------------|
|--0-0--0----0-0--0------------------|
|--0-0--0----0-0--0------------------|
   * *  *  ^ * *  *  ^  ^  ^  ^

Pre Verse: (Rhythm pattern)
|--------------------------------------------------------------|
|--------------------------------------------------------------|
|--------------------------------------------------------------|
|--0-0--3-3--0-0--3-3--5--3--0-0--3-3--0-0--3-3~/7~------------|repeat x4
|--0-0--3-3--0-0--3-3--5--3--0-0--3-3--0-0--3-3~/7~------------|
|--0-0--3-3--0-0--3-3--5--3--0-0--3-3--0-0--3-3~/7~------------|

Verse:(Note: Tab in to the 15th fret during the end of the 2nd round of this riff)
|---------------------------------------------------------------|
|----15~13~15~---15~13~15~---15~13~15~/18~\15~13----------------|
|-12~---------12~---------12~-----------------------------------|repeat x2
|---------------------------------------------------------------|
|---------------------------------------------------------------|
|---------------------------------------------------------------|

(Repeat Intro riff x4)
Then
(Repeat Verse Riff x2)
Then
(Repeat Preverse Riff x4)

Bridge Riff:
|---------------------------------------------------------------|
|---------------------------------------------------------------|
|---------------------------------------------------------------| x2
|--0~-3~-0~--12-10-8-8-10--0~-3~-0~-12-10-8-8-10-8-10-----------|
|--0~-3~-0~--12-10-8-8-10--0~-3~-0~-12-10-8-8-10-8-10-----------|
|--0~-3~-0~--12-10-8-8-10--0~-3~-0~-12-10-8-8-10-8-10-----------|

(Note: At the finale of this riff, tab in to 5th fret)

(Repeat Verse riff x 2)
Then
(Repeat Preverse Riff x2)
Then
(Repeat Bridge Riff x2)

Finale:
|----------------------------------------------------------------|
|----------------------------------------------------------------|
|----------------------------------------------------------------|
|--0--0--0----0--0--0-----0~-------------------------------------|
|--0--0--0----0--0--0-----0~-------------------------------------|
|--0--0--0----0--0--0-----0~-------------------------------------|


PLease rate ds tab... tnx!!!
f may mali, pki correct n lng s pg play nyu.^^
TNX!
Tap to rate this tab
# A B C D E F G H I J K L M N O P Q R S T U V W X Y Z