Song name
# A B C D E F G H I J K L M N O P Q R S T U V W X Y Z

Slapshot - In Your Face tab

Song: In Your Face
Artist: Slapshot
Album: The CD
Tabbed by: Caris O'Malley(punkplace@another.com)


*This is a really easy song to play if you can play bar chords.There's
a very good chance that this is the only Slapshot tab ever put on
the Internet. Good old Boston hard-core. Hope you enjoy it.

e-3-3-3-3-3-5-5-5-5-5-5-5-3-3-3-3-3-3-4-4-4-4-4-4-4---|
b-3-3-3-3-3-5-5-5-5-5-5-5-3-3-3-3-3-3-4-4-4-4-4-4-4---|
g-4-4-4-4-4-6-6-6-6-6-6-6-4-4-4-4-4-4-5-5-5-5-5-5-5---|
d-5-5-5-5-5-7-7-7-7-7-7-7-5-5-5-5-5-5-6-6-6-6-6-6-6---|
a-5-5-5-5-5-7-7-7-7-7-7-7-5-5-5-5-5-5-6-6-6-6-6-6-6---|
e-3-3-3-3-3-5-5-5-5-5-5-5-3-3-3-3-3-3-4-4-4-4-4-4-4---|


Verse:

e-3-3-3-4-4-3-3-3-4-4-3-3-3-4-4-------------|
b-3-3-3-4-4-3-3-3-4-4-3-3-3-4-4-------------|
g-4-4-4-5-5-4-4-4-5-5-4-4-4-5-5-------------|
d-5-5-5-6-6-5-5-5-6-6-5-5-5-6-6-------------|
a-5-5-5-6-6-5-5-5-6-6-5-5-5-6-6-------------|
e-3-3-3-4-4-3-3-3-4-4-3-3-3-4-4-------------|
I...mind..having..to..remind...

e-3-3-3-4-4-3-3-3-4-4-3-3-3-4-4-3-3-3-4-4--------|
b-3-3-3-4-4-3-3-3-4-4-3-3-3-4-4-3-3-3-4-4--------|
g-4-4-4-5-5-4-4-4-5-5-4-4-4-5-5-4-4-4-5-5--------|
d-5-5-5-6-6-5-5-5-6-6-5-5-5-6-6-5-5-5-6-6--------|
a-5-5-5-6-6-5-5-5-6-6-5-5-5-6-6-5-5-5-6-6--------|
e-3-3-3-4-4-3-3-3-4-4-3-3-3-4-4-3-3-3-4-4--------|
......???......always.....swear.....can..

e-3-3-3-4-4-3-3-3-4-4-3-3-3-3-3-3-5-5-5-5-5-5------|
b-3-3-3-4-4-3-3-3-4-4-3-3-3-3-3-3-5-5-5-5-5-5------|
g-4-4-4-5-5-4-4-4-5-5-4-4-4-4-4-4-6-6-6-6-6-6------|
d-5-5-5-6-6-5-5-5-6-6-5-5-5-5-5-5-7-7-7-7-7-7------|
a-5-5-5-6-6-5-5-5-6-6-5-5-5-5-5-5-7-7-7-7-7-7------|
e-3-3-3-4-4-3-3-3-4-4-3-3-3-3-3-3-5-5-5-5-5-5------|
.......straight...had too much in excess


e-3-3-3-3-3-3-4-4-4-4-4-4-3-3-3-3-3-3-5-5-5-5-5-5----|
b-3-3-3-3-3-3-4-4-4-4-4-4-3-3-3-3-3-3-5-5-5-5-5-5----|
g-4-4-4-4-4-4-5-5-5-5-5-5-4-4-4-4-4-4-6-6-6-6-6-6----|
d-5-5-5-5-5-5-6-6-6-6-6-6-5-5-5-5-5-5-7-7-7-7-7-7----|
a-5-5-5-5-5-5-6-6-6-6-6-6-5-5-5-5-5-5-7-7-7-7-7-7----|
e-3-3-3-3-3-3-4-4-4-4-4-4-3-3-3-3-3-3-5-5-5-5-5-5----|
you...know.......you How......it's


e-3-3-3-3-3-3-4-4-4-4-4-4-3-3-3-3-3-3-5-5-5-5-5-5----|
b-3-3-3-3-3-3-4-4-4-4-4-4-3-3-3-3-3-3-5-5-5-5-5-5----|
g-4-4-4-4-4-4-5-5-5-5-5-5-4-4-4-4-4-4-6-6-6-6-6-6----|
d-5-5-5-5-5-5-6-6-6-6-6-6-5-5-5-5-5-5-7-7-7-7-7-7----|
a-5-5-5-5-5-5-6-6-6-6-6-6-5-5-5-5-5-5-7-7-7-7-7-7----|
e-3-3-3-3-3-3-4-4-4-4-4-4-3-3-3-3-3-3-5-5-5-5-5-5----|
safe in small amounts? until.....late

e-3-3-3-3-3-3-4-4-4-4-4-4-3-3-3-3-3-3-|
b-3-3-3-3-3-3-4-4-4-4-4-4-3-3-3-3-3-3-|
g-4-4-4-4-4-4-5-5-5-5-5-5-4-4-4-4-4-4-|
d-5-5-5-5-5-5-6-6-6-6-6-6-5-5-5-5-5-5-|
a-5-5-5-5-5-5-6-6-6-6-6-6-5-5-5-5-5-5-|
e-3-3-3-3-3-3-4-4-4-4-4-4-3-3-3-3-3-3-|
damage..done

End Verse

Chorus:
e-4-4-4-4-4-4-5-5-5-5-3-3-3-3--------------|
b-4-4-4-4-4-4-5-5-5-5-3-3-3-3--------------|
g-5-5-5-5-5-5-6-6-6-6-5-5-5-5--------------|
d-6-6-6-6-6-6-7-7-7-7-5-5-5-5--------------| X3
a-6-6-6-6-6-6-7-7-7-7-5-5-5-5--------------|
e-4-4-4-4-4-4-5-5-5-5-3-3-3-3--------------|
.....p.m.....
Straight edge.....face


End Chorus


Verse
Chorus (no words)

e-4-4-4-4-4-4-3-3-3-3-5-5-5-5--------------|
b-4-4-4-4-4-4-3-3-3-3-5-5-5-5--------------|
g-5-5-5-5-5-5-4-4-4-4-6-6-6-6--------------|
d-6-6-6-6-6-6-5-5-5-5-7-7-7-7--------------| X4
a-6-6-6-6-6-6-5-5-5-5-7-7-7-7--------------|
e-4-4-4-4-4-4-3-3-3-3-5-5-5-5--------------|


e-4-4-4-4-4-4-3-3-3-3-5-5-5-5-4-4-4-4-4-4-3-3-3-3-5-5-5-5-|
b-4-4-4-4-4-4-3-3-3-3-5-5-5-5-4-4-4-4-4-4-3-3-3-3-5-5-5-5-|
g-5-5-5-5-5-5-4-4-4-4-6-6-6-6-5-5-5-5-5-5-4-4-4-4-6-6-6-6-|
d-6-6-6-6-6-6-5-5-5-5-7-7-7-7-6-6-6-6-6-6-5-5-5-5-7-7-7-7-|
a-6-6-6-6-6-6-5-5-5-5-7-7-7-7-6-6-6-6-6-6-5-5-5-5-7-7-7-7-|
e-4-4-4-4-4-4-3-3-3-3-5-5-5-5-4-4-4-4-4-4-3-3-3-3-5-5-5-5-|
..p.m...... ...p.m.....

Get your booze away from me!
Keep your pills outta sight
Don't get smoke in my face
Or you'll..straight edge..face


e-4-4-5-5-3-3-4-4-5-5------------------|
b-4-4-5-5-3-3-4-4-5-5------------------|
g-5-5-6-6-4-4-5-5-6-6------------------|
d-6-6-7-7-5-5-6-6-7-7------------------|
a-6-6-7-7-5-5-6-6-7-7------------------|
e-4-4-5-5-3-3-4-4-5-5------------------|


Chorus
Verse
Tap to rate this tab
 
# A B C D E F G H I J K L M N O P Q R S T U V W X Y Z