Song name
# A B C D E F G H I J K L M N O P Q R S T U V W X Y Z

Slapshot - No Friend Of Mine tab

E-------------------------|
A-3-----------------------|
D-5-----------------------|   intro/breakdown x 4
G-5-----------------------|
B-------------------------|
E-------------------------|


E -----3333----66--8--8--8------------|
A-3333-5555-66-88-10-10-10------------|
D-5555------88---------------   VERSE-|x6
G-------------------------------------|
B-------------------------------------|
E-------------------------------------|

E---------------3------------------3------|
A-66666666-3333353/6 66666666-3333353/6---|
D-88888888-55555-5/8-88888888-55555--5/8--|
G-----------------------------------------| Chorus
B-----------------------------------------|
E-----------------------------------------|

E---------------3-------------33333333-|
A-66666666-3333353/6 66666666-55555555-|
D-88888888-55555-5 /8-88888888---------| CHORUS(continued)
G--------------------------------------|
B--------------------------------------|
E--------------------------------------|
Sorry Don't know the solo Improvise

SLAPSHOT “NO FRIEND OF MINE”
Tap to rate this tab
 
# A B C D E F G H I J K L M N O P Q R S T U V W X Y Z