Song name
# A B C D E F G H I J K L M N O P Q R S T U V W X Y Z

Slapshot - Big Mouth Strikes Again tab

-------------------------------------------------------------------------------
                                   BIG MOUTH STRIKES AGAIN - Slapshot
-------------------------------------------------------------------------------
Tabbed by: min0r_threat
E-mail: ngrantj@yahoo.com

Tuning: Standard

Sick and easy song to learn how to play, listen to it for the timing.

VERSE/CHORUS
e|---------------------------------------------------------------------------|
B|---------------------------------------------------------------------------|
G|---------------------------------------------------------------------------|
D|-44-444--7-77--9-99--44-4/5/4----------------------------------------------|
A|-22-222--5-55--7-77--22-2/3/2--5-55--7-77----------------------------------|
E|-------------------------------3-33--5-55----------------------------------|

BRIDGE
e|---------------------------------------------------------------------------|
B|---------------------------------------------------------------------------|
G|---------------------------------------------------------------------------|
D|---------------------------------------------------------------------------|
A|-7-77-77--55-7-77-77--99-101010--------------------------------------------|
E|-5-55-55--33-5-55-55--77-8-8-8---------------------------------------------|

The song structure is simple: 
VERSE/CHORUS x20
BRIDGE x2
VERSE/CHORUS x15

That's it!
Tap to rate this tab
# A B C D E F G H I J K L M N O P Q R S T U V W X Y Z