Song name
# A B C D E F G H I J K L M N O P Q R S T U V W X Y Z

Slapshot - 16 Valve Hate tab

-----------------------------------------------------------------------------
                             16 VALVE HATE - Slapshot
-----------------------------------------------------------------------------
Tabbed by: min0r_threat
E-mail: ngrantj@yahoo.com

Tuning: Standard

INTRO RIFF A
e|-----------------------|
B|-----------------------|
G|-----------------------|
D|--555-2--2-2-2-2222----|
A|--555-2--2-2-2-2222----|
E|--333-0--0-0-0-0000----|

INTRO RIFF B
e|-----------------------|
B|-----------------------|
G|-----------------------|
D|--444-5--5-5-5-5555----|
A|--444-5--5-5-5-5555----|
E|--222-3--3-3-3-3333----|

VERSE
e|----------------------------------------------|
B|----------------------------------------------|
G|----------------------------------------------|
D|----------------------------------------------|
A|--8-7-5-2--2-2-2-2222--8-7-5-8--8-8-8-8888----|
E|--6-5-3-0--0-0-0-0000--6-5-3-6--6-6-6-6666----|

CHORUS
e|----------------------------------------|
B|----------------------------------------|
G|----------------------------------------|
D|-----------4-4-444----------------------|
A|--5-5-555--2-2-222--4-4-4-4-4444-444----|
E|--3-3-333-----------2-2-2-2-2222-222----|


SONG STRUCTURE:
INTRO RIFF A x8
INTRO RIFF B x4
INTRO RIFF A x8
INTRO RIFF B x4
INTRO RIFF A x4
VERSE x6
CHORUS x4
VERSE x6
CHORUS x4
(random guitar noise)
VERSE x4
CHORUS x4
Tap to rate this tab
# A B C D E F G H I J K L M N O P Q R S T U V W X Y Z