Song name
# A B C D E F G H I J K L M N O P Q R S T U V W X Y Z

Slash - Canadian American National Anthem tab

Canadian National Anthem

e----------|-------------|-----------------------|   
B----------|-------------|-----------------------|   
G----------|-------------|-----------------------|   
D-2--5-5---|-0-2-3-5-7-0-|-2--4-4-5--7-9-9-7-7-5-|   
A--------3-|-------------|-----------------------|   
E----------|-------------|-----------------------|

e----------------------------------------|
B----------------------------------------|
G----------------------------------------|
D--0-2-3-2-0--2-3-5-3-2--2-0-5-5-3-2-3-5-|
A----------------------------------------|
E----------------------------------------|

e----------|---------|-------------------------------------------|
B----------|---------|-------------------------------------------|
G----------|---------|-------------------------------------------|
D--2-5-5---|3-3-7-7-0|-2-4-4-5--3-2-0--0-2--5-10-7--3-2-0-5------|
A--------3-|---------|---------------3----------------------2-3--|
E----------|---------|-------------------------------------------|

Lyrics:
O Canada!Our home and native land!
True patriot love in all thy sons command.
With glowing hearts we see thee rise,
The True North strong and free!
From far and wide,
O Canada, we stand on guard for thee.
God keep our land glorious and free!
O Canada, we stand on guard for thee.
O Canada, we stand on guard for thee.
 
Tap to rate this tab
# A B C D E F G H I J K L M N O P Q R S T U V W X Y Z