Song name
# A B C D E F G H I J K L M N O P Q R S T U V W X Y Z

Slash - Mother Maria tab

-----------------------------------------------------------------------------
			     Mother Maria - Slash & Beth Hart
-----------------------------------------------------------------------------
Tabbed by: Nightrain
Email: m1n1m3@hotmail.co.uk

Tuning: Half-Step Down

Just the intro for now, I'll update as I work it out.

eb|--------------------------------------------------|
Bb|--7-6-4-------------------------------------------|
Gb|--------------------------------------------------|
Db|--------1-3-4/9-6-8--4----------------------------|
Ab|-----------------------6-----6-8-8h9-9p8--6-8--4/6|
Eb|-------------------------6-6----------------------|

eb|--------------------------------------------------|
Bb|------7-10-14-13-11-10----11----------------------|
Gb|----8------------------10-------------------------|
Db|--8-----------------------------------------------|
Ab|--------------------------------------------------|
Eb|--------------------------------------------------|

eb|--------------------------------------------------|
Bb|--------------------14-13-11-11h13----------------|
Gb|--10-------------10-------------------------------|
Db|-----11-------11----------------------------------|
Ab|--------13-13-------------------------------------|
Eb|--------------------------------------------------|

************************************

| /   slide up
| \   slide down
| h   hammer-on
| p   pull-off
| ~   vibrato
| +   harmonic
| x   Mute note
| b   Bend
| pb  Pre-bend
| br  Bend release
| pbr Pre-bend release
| brb Bend release bend

************************************
Tap to rate this tab
 
# A B C D E F G H I J K L M N O P Q R S T U V W X Y Z