Song name
# A B C D E F G H I J K L M N O P Q R S T U V W X Y Z

Slash - Mother Maria tab

e|-------------------------------------------------------------------------------------------|
b|5^-------5h6p5---5-5----------------------------------------10-----------------------------|
g|--7^-5h7-------7-----7-7/5---------------------5h7/9-7h9/10^--10^10-7h9-9^9-7-7h9-7----7-7-|
d|---------------------------5p3-5-3-5/7-5p3-5p3--------------------------------------10-----|
a|-------------------------------------------------------------------------------------------|
E|-------------------------------------------------------------------------------------------|

e|-------------------------------------------------------------------------------------------|
b|-------------------------------------------------------------------------------------------|
g|-12/10-12/10-12/10-10/12--18-18/17-15-15/17-(17)/15-15/17-17^15h17-15----15-15--------(17)-|
d--12/10-12/10-12/10-10/12--------------15/17-(17)/15-15/17-------------17-------(12/17)-----|
a|-------------------------------------------------------------------------------------------|
E|-------------------------------------------------------------------------------------------|

e|-17-15-13-15-13-15-13h15p13----13-20----20--18-18-17-----13---------13--------|
b|----------------------------17-------17-------------18------16-16/15--15/(13--|
g|------------------------------------------------------17----------------------|
d|------------------------------------------------------------------------------|
a|------------------------------------------------------------------------------|
E|------------------------------------------------------------------------------|

Tabs by Nik
Check my video in order to understand better!
http://www.youtube.com/watch?v=otT8geObuk8
Tap to rate this tab
# A B C D E F G H I J K L M N O P Q R S T U V W X Y Z