Song name
# A B C D E F G H I J K L M N O P Q R S T U V W X Y Z

Slash - By The Sword tab

I tabbed this out by ear to the best of my abilities; 
I threw the lyrics in there for the first verse for fun.  
Hope it helps, enjoy!

p=pull off
h=hammer on



Intro Riff/Outro Riff/Main Riff
                     A
E|--------------------------------|
B|--------------------------------|
G|--------------------------------|
D|-------------------7------------|
A|-------3-----------7------------|
E|-0h3h5---5-5p3p0h3-5------------|

Verse 1: With the horses that you ride
Verse 2: (Couldn't make out)




                    D/f#
E|-------------------2------------|
B|-------------------3------------|
G|-------------------2------------|
D|-------------------0------------|
A|-------5-3---------0------------|
E|-0h3h5-----5p3p0h3-2------------|

Verse 1: And the feelings left inside
Verse 2: Anyone could let it go



                     F
E|--------------------------------|
B|--------------------------------|
G|--------------------------------|
D|-------------------3------------|
A|-------3-2-0-------3------------|
E|-0h3h5------h3p0-3-1------------|

Verse 1: Comes a time you need to 
Verse 2: And the people gather round



                     A
E|--------------------------------|
B|--------------------------------|
G|--------------------------------|
D|-------------------7------------|
A|-------5-3---------7------------|
E|-0h3h5-----5p3p0h3-5------------|

Verse 1: Leave  all  that  behind
Verse 2: for   the   last  show


For the chorus I play (all bar chords:

D, Fm (at the 8th fret on the A string), Am, G

Then the second time through after the G I move to a G#.
(4th on the low E string, 6th on the A and D string for those 
that aren't as proficient with notes)
Tap to rate this tab
# A B C D E F G H I J K L M N O P Q R S T U V W X Y Z