Song name
# A B C D E F G H I J K L M N O P Q R S T U V W X Y Z

Slash - Nothing To Say tab

----------------------------------------------------------------------------
-Nothing To Say-
----------------------------------------------------------------------------

Artist:Slash Featuring M. Shadows From Avenged Sevenfold
Album:Slash's Solo CD
Song:Nothing To Say

I don't have everything tabbed yet but this is most of the song and it all
 sounds good to me so good luck and thanks for all comments/ratings.


Tuning- Standard EADGBE
E-1st string
B-2nd string
G-3rd string
D-4th string
A-5th string
E-6th string

{KEY}
*  Palm Mute
x  Mute
~  Let Ring
/  Slide Up Guitar (with fingers)
\  Slide Down Guitar (with fingers)
*^  Pinch Harmonic
h  Hammer-On
p  Pull-Off
T  Trill
b  Bend




(Intro)
Lead guitar #1...
E|-------------------------------------------------------------------------|
B|-------------------------------------------------------------------------|
G|-------------------------------------------------------------------------|
D|-------------------------------------------------------------------------|
A|--------0-4-3~--3-4-2-0--------------------------------------------------|
D|-2~-1-2-----------------2~-----------------------------------------------|
(Played X4)


Rythym Guitar...
E|-------------------------------------------------------------------------|
B|-------------------------------------------------------------------------|
G|------------5~-----------------------------------------------------------|
D|-2~---------5~----------2~-----------------------------------------------|
A|-2~---------3~----------2~-----------------------------------------------|
D|-0~---------------------0~-----------------------------------------------|
(Played X4)


Lead Guitar #2... (Harmony to Guitar #1)
E|-------------------------------------------------------------------------|
B|-------------------------------------------------------------------------|
G|-------------------------------------------------------------------------|
D|---------2-6-5~--5-6-4-2-------------------------------------------------|
A|-4~--3-4-----------------4~----------------------------------------------|
D|-------------------------------------------------------------------------|
(Played X3 - Played after 1st time trough guitar 1)


Lead Guitar #3...
E|-9---9---9---9-----8---8---8---8-----9---9---9---9-----------------------|
B|-12b-12b-12b-12b---11b-11b-11b-11b---12b-12b-12b-12b---------------------|
G|--------------------------------------------------------5~---------------|
D|--------------------------------------------------------5~---------------|
A|--------------------------------------------------------3~---------------|
D|-------------------------------------------------------------------------|


Lead Guitar #1...
E|-------------------------------------------------------------------------|
B|-------------------------------------------------------------------------|
G|-------------------------------------------------------------------------|
D|-------------------------------------------------------------------------|
A|-----5-----8-----5-----8-----4h5-------5-----8-----5-----8-----4h5-------|
D|-4-5---4-5---4-5---4-5---4-5-------4-5---4-5---4-5---4-5---4-5-----------|
   * *   * *   * *   * *   * *       * *   * *   * *   * *   * *
(Played X4)


Rythym Guitar...
E|--------------------------13~--------------------------------------------|
B|--------------------------16b~-------------------------------------------|
G|-------------------------------------------------------------------------|
D|-2---2---2---2---2---2---------------------------------------------------|
A|-2---2---2---2---2---2---------------------------------------------------|
E|-0---0---0---0---0---0---------------------------------------------------|

Lead Guitar #1...
E|-------------------------------------------------------------------------|
B|-------------------------------------------------------------------------|
G|-------------------------------------------------------------------------|
D|-------------------------------------------------------------------------|
A|-----5-----8-----5-----8-----4h5-------5-----8-----5-----8-----4h5-------|
D|-4-5---4-5---4-5---4-5---4-5-------4-5---4-5---4-5---4-5---4-5-----------|
   * *   * *   * *   * *   * *       * *   * *   * *   * *   * *
(Played X4)


(Verse)
Lead Guitar #1...
E|-------------------------------------------------------------------------|
B|-------------------------------------------------------------------------|
G|---------------------------------5~-------3~-----------------------------|
D|---------------------------------5~-------3~-----------------------------|
A|---------------------------------3~-------1~-----------------------------|
D|-0-0-0-0-0-0-0-0-(Realy-fast)--------------------------------------------|
Tap to rate this tab
 
# A B C D E F G H I J K L M N O P Q R S T U V W X Y Z