Song name
# A B C D E F G H I J K L M N O P Q R S T U V W X Y Z

Slash - Nothing To Say tab

Tuning - Drop D


Intro
E----------------------------------------|
B----------------------------------------|
G----------------------------------------|
D----------------------------------------|
A-----5---8----5----7----4-5-------------|
D--00---00--00---00---00-----------------|


Verse
E----------------------------------------------------|
B----------------------------------------------------|
G----------------------------------------------------|
D--------------------5-5-55--------3-3-33------------|
A--------------------3-3-33------1-1-11--------------|
D---0000000000000000---------------------------------|

Pre-Chorus
E-----------------------------------------------------|
B-----------------------------------------------------|
G-7-7---7-7--7-7--9--6-7------------------------------|
D-----------------------------------------------------|
A-5-5---5-5--5-5--7--4-5------------------------------|
D-----------------------------------------------------|

Chorus
E-----------------------------------------------------------|
B-----------------------------------------------------------|
G-----------------------------------------------------------|
D-3---5------------------------3---5---5--5-5--2------------|
A-1---3-----5--8--5--7--4-5----1---3---3--3-3--4------------|
D---------00-00-00-00-00------------------------------------|

Lead Break 1
E-------------------------------------------------------10--12--13---|
B----------------------------------------------10-11-13--------------|
G-------------------------------------7--9--10-----------------------|
D-------------------5--7--8--5--7--8---------------------------------|
A--5--7--8--5--7--8--------------------------------------------------|
D--------------------------------------------------------------------|


--13-12-10-9-12-10-9----10-9-------9------------------------------------------|
---------------------11------11-10---11-10-8-11-10-8----10-8-----8------------|
-----------------------------------------------------10-----10-9---10-9-7-10--|
------------------------------------------------------------------------------|
------------------------------------------------------------------------------|
------------------------------------------------------------------------------|


----------------------------------------------------------------|
----------------------------------------------------------------|
--9-7-6-7-------------------------------------------------------|
----------------------------------------------------------------|
----------------------------------------------------------------|
----------------------------------------------------------------|


All I got so far, surprised im the first one to post something!
Tap to rate this tab
# A B C D E F G H I J K L M N O P Q R S T U V W X Y Z