Song name
# A B C D E F G H I J K L M N O P Q R S T U V W X Y Z

Slash - Beautiful Dangerous tab

Tabbed by Fanwing (Lorenzo Pagliaro)
http://www.youtube.com/user/FaNwlnG?feature=mhw4
Feel free to message me for feedbacks. Write at Lorenzsemper@hotmail.com Help me 
completing this tab!
--------------------
Slash (feat. Fergie) - beautiful dangerous
STANDARD TUNING
~ = vibrato
/ = slide
Intro 0:00 ~ 0:13 (palm muted, heavy sound, alot of basses)
Repeat 5 times, follow the bass line.

-----------------------------------|
-----------------------------------|
-----------------------------------|
--4--5-----------------------------|
--4--5-----------------------------|
--2--3-----------------------------|

Verse from 0:13
------------------------------------------------------|
------------------------------------------------------|
------------2--4--------------------------------------|
--4---------2--4-------------------- Repeat till 0:32-|
--4-(x7)----0--2--------------------------------------|
--2---------------------------------------------------|

0:32
-----------------------------------|
-----------------------------------|
-------------------------------2-4-|
-2-4---4~/0--2-4-----2-4--4~/0-2-4-| (repeat)
-2-4---------2-4-----2-4-------0-2-|
-0-2---------0-2-----0-2-----------|

Chorus:

----------------------------------------|
----------------------------------------|
---7--6---------------------------------|
---7--7----7/9--5-------7/9--5----------| (repeat)
---5--4----7/9--5-------7/9--5----------|
-----------5/7--3-------5/7--3----------|

------------------------------------|
------------------------------------|
--7--2--4~--------------------------|
--7--2--4~--------------------------|
--5--0--2~--------------------------|
------------------------------------|

This lick is played by the solo guitar during the chours and in the outro (listen to the 
track for the correct timing). It's really hard to tab this since you can barely hear 
during the chorus, so it may be wrong in some notes.

-----------------------------------------------------------------------------|
-----------------10~~---------------------------------------------10b12--9-9-|
--(9)11--11p9------------11p9-7/6-7p6---9~---9p7p6-----------9---------------|
--------------11----------------------9------------7h9p7~~-------------------|
-----------------------------------------------------------------------------|
-----------------------------------------------------------------------------|

--------------------------------|
------10b12--9--9h10-----8~~----|
--9--------------------9--------|
--------------------------------|
--------------------------------|
--------------------------------|
1:40
--------------------------------------------|
--------------------------------------------|
---------------------------------------2-4--|
-2-4---4~/0--2-4--4~/0--2-4--4~/0--2-4-2-4--|
-2-4---------2-4--------2-4--------2-4-0-2--|
-0-2---------0-2--------0-2--------0-2------|
1:50
-----------------------------------|
-----------------------------------|
-------------------------------2-4-|
-2-4---4~/0--2-4-----2-4--4~/0-2-4-| (repeat)
-2-4---------2-4-----2-4-------0-2-|
-0-2---------0-2-----0-2-----------|


Chorus:

----------------------------------------|
----------------------------------------|
---7--6---------------------------------|
---7--7----7/9--5-------7/9--5----------| (repeat)
---5--4----7/9--5-------7/9--5----------|
-----------5/7--3-------5/7--3----------|

-----------------------------------|
-----------------------------------|
--7--2--4~-------------------------|
--7--2--4~-------------------------|
--5--0--2~-------------------------|
-----------------------------------|

Solo
to be tabbed.


Chorus + outro

----------------------------------------|
----------------------------------------|
---7--6---------------------------------|
---7--7----7/9--5-------7/9--5----------| (repeat)
---5--4----7/9--5-------7/9--5----------|
-----------5/7--3-------5/7--3----------|

-----------------------------------|
-----------------------------------|
--7--2--4~-------------------------|
--7--2--4~-------------------------|
--5--0--2~-------------------------|
-----------------------------------|

Outro (same lick of chorus played with higher volume)
-----------------------------------------------------------------------------|
-----------------10~~---------------------------------------------10b12--9-9-|h
--(9)11--11p9------------11p9-7/6-7p6---9~---9p7p6-----------9---------------|
--------------11----------------------9------------7h9p7~~-------------------|
-----------------------------------------------------------------------------|
-----------------------------------------------------------------------------|

-------------------------------|
------10b12--9--9h10-----8~~---|
-9--------------------9--------|
-------------------------------|
-------------------------------|
-------------------------------|
Tap to rate this tab
# A B C D E F G H I J K L M N O P Q R S T U V W X Y Z