Song name
# A B C D E F G H I J K L M N O P Q R S T U V W X Y Z

Slash - Gotten tab

First Time Ever Tabbing....Did This By Ear....Its In Standard Tuning
Ill Try to get the Rest Later On

e|-------------------------------------------|
B|-----5---4/5---7-5---4/5--4----------------|
G|-------4-----4-----4---------4-------------|
D|-------------------------------------------|
A|--4----------------------------------------|
E|-------------------------------------------|


e|-------------------------------------------|
B|-----5---4/5---7-5---4/5--4----------------|
G|-------4-----4-----4---------4-------------|
D|-------------------------------------------|
A|--0----------------------------------------|
E|-------------------------------------------|


e|-----------------------------------------------------------------------|
B|-----5---4/5---7-5---4/5--4-----------4--5--4--------4-7p5-------------|
G|-------4-----4-----4---------4------4--4-----4------5-----4------------|
D|---------------------------------------------------6-------6-----------|
A|----------------------------------2--------------3---------------------|
E|--0--------------------------------------------------------------------|
Tap to rate this tab
 
# A B C D E F G H I J K L M N O P Q R S T U V W X Y Z