Song name
# A B C D E F G H I J K L M N O P Q R S T U V W X Y Z

Slash - Mother Maria tab

e|-----------------------------------------------------------------------------------------------|
b|5^-------5h6p5----5-5-----------------------------------------10-------------------------------|
g|--7^-5h7-------7h5---7-7/5------------------------5h7/9-7h9/10^-10^10-7h9-9^9-7-7h9-7---7------|
d|---------------------------7/5-3-5-3-5/7-7/5-3-3b-------------------------------------10-10/12-|
a|-----------------------------------------------------------------------------------------------|
E|-----------------------------------------------------------------------------------------------|

e|---------------------------------------------------------------------------------------13--|
b|-------------------------18-18/17-15-15/17-(17)/15-15/17-17^15h17-15----15---------/15-----|
g|-12/10-12/10-12/10-10/12-------------15/17-(17)/15-15/17-------------17----17/19-----------|
d--12/10-12/10-12/10-10/12-------------------------------------------------------------------|
a|-------------------------------------------------------------------------------------------|
E|-------------------------------------------------------------------------------------------|

e|-17-15-13-15-13-15-13h15p13---13-------20----18b-18-18--17-18p17-------------------15-------|
b|----------------------------17--17--------18--------------------18--18b20--18-18/17--17/15--|
g|------------------------------------------------------------------19------------------------|
d|--------------------------------------------------------------------------------------------|
a|--------------------------------------------------------------------------------------------|
E|--------------------------------------------------------------------------------------------|


Tabbed by Dane
Changes made to Nik's original tab
Tap to rate this tab
# A B C D E F G H I J K L M N O P Q R S T U V W X Y Z