Song name
# A B C D E F G H I J K L M N O P Q R S T U V W X Y Z

Slash - Baby Cant Drive tab

Hullo thar. :). I thought I would tab out all I've worked out from Baby Can't Drive from 
new album, because I
have too much time on my hands and the song is awesome. I'm gonna tab out each bit, adn 
put the structure at the end,
it's simpler that way. SO.

Part A:

e|--------------------------------|
B|-----------------0-2------------|
G|-----------------0-2------------| x8
D|-----------0h2----------0-2---2-|
A|-----------0h2-------0~-----2---|
E|-0-3b3.5p0-----0----------------|

Part B:

e|-----------------------------|
B|-----------------------------|
G|-------------0h1-------------| x4
D|-----------------2---0-------|
A|-------2-4---------2---2-----|
E|-0-3-4-----0-------------3-4-|

Palm mute all the notes except the 0h1 hammer on on the G, but not very heavily!

Part C:

e|-----------------------------------------------|
B|-----------------------------------------------|
G|-----------------------------------------------|
D|-4~-3~-7~~-4~-3~-2-2-2-2-2-2-2-2-2-2-2-2-2-2-2-|
A|-4~-3~-7~~-4~-3~-2-2-2-2-2-2-2-2-2-2-2-2-2-2-2-|
E|-2~-1~-5~~-2~-1~-0-0-0-0-0-0-0-0-0-0-0-0-0-0-0-|

Palm mute the E powerchords.

Part D:

e|------------------------------|
B|---------------0h2------------|
G|---------------0h2---5s7-7~---| x4
D|-------2-------------5s7-7~---|
A|-3b3.5-0-3b3.5-----0-3s5-5~---|
E|------------------------------|

Part E:

e|---------------------------------------------------------------------------|
B|-7-x-7-x-7-5---6~-----8-6h8---7-x-7-x-7-----10~-12~-10/--------------------|
G|-7-x-7-x-7-5------7-5-------7-----------7-5-10~-12~-11/--------------------|
D|-------------7-------------------------------------------------------------|
A|---------------------------------------------------------------------------|
E|---------------------------------------------------------------------------|

Part F:

e|---------------------------------------------------------------------------|
B|---------------------------------------------------------------------------|
G|---------------------------------------------------------------------------|
D|-5-x-5-x-5-x-5-x-4-x-4-x-4-x-4-x-2-x-2-x-2-x-2-x---------------------------|
A|-3-x-3-x-3-x-3-x-2-x-2-x-2-x-2-x-0-x-0-x-0-x-0-x---------------------------|
E|---------------------------------------------------------------------------|

e|---------------------------------------------------------------------------|
B|---------------------------------------------------------------------------|
G|---------------------------------------------------------------------------|
D|-5-x-5-x-5-x-5-x-4-x-4-x-4-x-4-x-2-2-2-2-2-2-2-2-2-2-2-2-2-----------------|
A|-3-x-3-x-3-x-3-x-2-x-2-x-2-x-2-x-2-2-2-2-2-2-2-2-2-2-2-2-2-----------------|
E|---------------------------------0-0-0-0-0-0-0-0-0-0-0-0-0-----------------|

Part G

Go nuts. Eight bars in A minor pentatonic, 4 bars in D minor pentatonic, 4 bars in E 
penatatonic.
Make sure you wind up on an A note at the end of your solo in E.

The Structure:

Part A
Part B
Part C
Part D
Part E
Part B
Part C
Part D
Part F
Part G
Part D
Part D

Have fun with this. :)
Tap to rate this tab
 
# A B C D E F G H I J K L M N O P Q R S T U V W X Y Z