Song name
# A B C D E F G H I J K L M N O P Q R S T U V W X Y Z

Slash - Gotten tab

-----------------------------------------------------------------------------
			     GOTTEN - Slash
-----------------------------------------------------------------------------
(intro)

E|-------------------------------------------|
B|-----5---4/5---7-5---4/5--4----------------|
G|-------4-----4-----4---------4-------------|
D|-------------------------------------------|
A|--4----------------------------------------|
E|-------------------------------------------|

E|-------------------------------------------|
B|-----5---4/5---7-5---4/5--4----------------|
G|-------4-----4-----4---------4-------------|
D|-------------------------------------------|
A|--0----------------------------------------|
E|-------------------------------------------|

E|-----------------------------------------------------------------------|
B|-----5---4/5---7-5---4/5--4-----------4--5--4--------4-7p5-------------|
G|-------4-----4-----4---------4------4--4-----4------5-----4------------|
D|---------------------------------------------------6-------6-----------|
A|----------------------------------2--------------3---------------------|
E|--0--------------------------------------------------------------------|

         Im out of love but I take it from the past
E|--------------------0---------------------------------------------|
B|------------4-------------4-------------------0--5----------------|
G|--------4------4------4-----4-------------6--------6--------------|
D|------------------------------------------7--------------7--------|
A|----2---------------------------------0---------------------------|
E|------------------------------------------------------------------|

E|-----------------------------------------------------|
B|-----------5-----5h7--------7--5---------------------|
G|--------------4-----------4----------4---------------|
D|----4h6---------------6----------6-------------------|
A|-----------------------------------------------------|
E|-0---------------------------------------------------|

        Im out of words cause I'm sure it'll never last
E|--------------------0---------------------------------------------|
B|------------4-------------4-------------------0--5----------------|
G|--------4------4------4-----4-------------6--------6--------------|
D|------------------------------------------7--------------7--------|
A|----2---------------------------------0---------------------------|
E|------------------------------------------------------------------|

And in the second pre-chorus the second bar changes to this:

E|----------------------0----------------------------------|
B|----------------5-------5-------------5------------------|
G|-----------4--------------4-------4----------------------|
D|---4h6------------------------6--------------------------|
A|---------------------------------------------------------|
E|-0-------------------------------------------------------|

  E                         B                         C#m
I've been saving these last words for one last miracle
        A                           B
But now I'm not sure
E                          B
I can't save you if you don't let me
C#m                                A                 C/E
You just get me like I've never been gotten before

The second chorus before the solo is the same except you add one more line in the end:
C#m      B           A               C/E
          Like I've never been gotten before

...
Tap to rate this tab
# A B C D E F G H I J K L M N O P Q R S T U V W X Y Z