Song name
# A B C D E F G H I J K L M N O P Q R S T U V W X Y Z

Slash - Ghost tab

GHOST - Slash feat. Ian Astbury (INTRO)

Tabbed by: Flexus13

This is my version of the intro of the Song "Ghost" by Slash and Ian Astbury.
Sorry, at the moment I'm just too lazy too tab the rest of the song,
but I think the most interesting part is the catchy riff that is played throughout the song.

Ok guys, if you pay attention to the intro, it's pretty clear that Slash uses open 
pull-offs.
Kind of tricky to play at the beginning,
but after a while it gets more smooth. Pay attention to stress the right notes (*).


Tuning:EADGBE

Version 1 (if you start with your index finger on the 10th fret (I think Slash is playin 
that way)):

   *      *      *      *      *
e|------------------------------------------------------------------|
B|-10p0---12p0---10p0---12p0---10\9p0-------------------------------|
G|------9------9------9------9--------9-----------------------------|repeat
D|------------------------------------------------------------------|
A|------------------------------------------------------------------|
E|------------------------------------------------------------------|

Version 2 (if you start with your middle finger on the 10th and use your pinkie for the 
(thats how I do it)):

   *      *      *      *      *
e|------------------------------------------------------------------|
B|-10p0---12p0---10p0---12p0---10p9p0-------------------------------|
G|------9------9------9------9--------9-----------------------------|repeat
D|------------------------------------------------------------------|
A|------------------------------------------------------------------|
E|------------------------------------------------------------------|

I hope it's ok and you're gonna have fun!


************************************

| /   slide up
| \   slide down
| h   hammer-on
| p   pull-off
| ~   vibrato
| +   harmonic
| x   Mute note
| b   Bend
| pb  Pre-bend
| br  Bend release
| pbr Pre-bend release
| brb Bend release bend
Tap to rate this tab
 
# A B C D E F G H I J K L M N O P Q R S T U V W X Y Z