Song name
# A B C D E F G H I J K L M N O P Q R S T U V W X Y Z

Slash - Nothing To Say tab

Nothing to Say - Slash feat. M Shadows

Haven't seen a full tab of this yet so thought I'd give
it a go.
Tuning: Drop D (eBGDAD)

x  Mute
*  Palm Mute
~  Let Ring/Vibrato
/  Slide Up 
\  Slide Down
h  Hammer-On
p  Pull-Off
b  Bend
br Bend and return (eg 8b10r8 = bend 8 to 1o then return to 8)
== Tremelo pick (very fast picking)


The solo probably isn't 100% but did my best in trying
to distinguish all the hammer ons and pull off's! 
Enjoy!

INTRO 1: 0:01

Lead Guitar#1
e|------------------------------------------------------------------|
B|------------------------------------------------------------------|
G|------------------------------------------------------------------|
D|------------------------------------------------------------------|
A|---------0-4p3~-3h4p2-0--------0-4p3~-3h4p2-0---------------------|
D|--4~-3h4----------------4~-3h4------------------------------------|
 (X4)


Lead Guitar#2 harmony comes in at 0:06
e|------------------------------------------------------------------|
B|------------------------------------------------------------------|
G|------------------------------------------------------------------|
D|-----------6-5~-5h6-4------------6-5~-5h6-4-----------------------|
A|--4~-3h4/7------------7-4~-3h4/7------------7---------------------|
D|------------------------------------------------------------------|
 (X3)


Rythym Guitar:
e|------------------------------------------------------------------|
B|------------------------------------------------------------------|
G|------------------------------------------------------------------|
D|--4~----5~----4~----5~----4~--2-3-2-3-5~----4~----5~--------------|
A|--4~----3~----4~----3~----4~--2-3-2-3-3~----4~----3~--------------|
D|--4~----------4~----------4~--2-3-2-3-------4~--------------------|
                                * * * *


Lead Guitar#1
e|--9---9---9---9----8---8---8---8----9---9---9---9---11------------|
B|--12b-12b-12b-12b--11b-11b-11b-11b--12b-12b-12b-12b-14b~----------|
G|------------------------------------------------------------------|
D|------------------------------------------------------------------|
A|------------------------------------------------------------------|
D|------------------------------------------------------------------| 


Lead Guitar#1 
e|------------------------------------------------------------------|
B|------------------------------------------------------------------|
G|------------------------------------------------------------------|
D|------5-----8-----5-----7-----4h5-----5-----8-----5-----7-----4h5-|
A|----0-----0-----0-----0-----0-------0-----0-----0-----0-----0-----|
D|--0-----0-----0-----0-----0-------0-----0-----0-----0-----0-------|
    * *   * *   * *   * *   * *     * *   * *   * *   * *   * *
 (X4)


Rythym Guitar: Comes in after 2X of above
e|------------------------------------------------------------------|
B|------------------------------------------------------------------|
G|------------------------------------------------------------6b7~--|
D|------------------------------------------------------------------|
A|--0-------0-------0-------0-------0-------0-------0-------0-------|
D|--0-------0-------0-------0-------0-------0-------0-------0-------|



Lead Guitar#1 
e|------------------------------------------------------------------|
B|------------------------------------------------------------------|
G|------------------------------------------------------------------|
D|------5-----8-----5-----7-----4h5-----5-----8-----5-----7-----4h5-|
A|----0-----0-----0-----0-----0-------0-----0-----0-----0-----0-----|
D|--0-----0-----0-----0-----0-------0-----0-----0-----0-----0-------|
    * *   * *   * *   * *   * *     * *   * *   * *   * *   * *
(X4)


VERSE: 0:44 

Lead Guitar#1 
(After the 1st time double the palm muted notes)
e|--------------------------------|
B|--------------------------------|
G|-------------------5-----3--3---|
D|-------------------5-----3--3-2-| (X1)
A|-------------------3-----1--1-0-|
D|--0000000000000000--------------|
    ****************

e|------------------------------------------------------------------|
B|------------------------------------------------------------------|
G|-------------------------------------5-----3----------------------| (X3)
D|-------------------------------------5-----3----------------------|
A|-------------------------------------3-----1--3/5-----------------|
D|--00000000000000000000000000000000------------3/5-----------------|
    ********************************

Pre-Chorus: 1:15

Lead Guitar#1
e|------------------------------------------------------------------|
B|------------------------------------------------------------------|
G|--7-7-xx-7-7-xx-7-7-x-9-xx-6/7------------------------------------|
D|--x-x-xx-x-x-xx-x-x-x-x-xx-x-x------------------------------------|
A|--5-5-xx-5-5-xx-5-5-x-7-xx-4/5------------------------------------|
D|------------------------------------------------------------------|
 (X4)

Rhythm Guitar: 
e|------------------------------------------------------------------|
B|------------------------------------------------------------------|
G|------------------------------------------------------------------|
D|------5-----8-----5-----7-----4h5-----5-----8-----5-----7-----4h5-|
A|----0-----0-----0-----0-----0-------0-----0-----0-----0-----0-----|
D|--0-----0-----0-----0-----0-------0-----0-----0-----0-----0-------|
    * *   * *   * *   * *   * *     * *   * *   * *   * *   * *
 (X4)


Lead Guitar#1 (Play at 1:23) 
e|------------------------------8-----------------------------------|
B|--------------------------9b10--b10r-9b10r9-7-9-7-5h6p5---5-------|
G|--------------------------------------------------------7---7~----|
D|------------------------------------------------------------------|
A|------------------------------------------------------------------|
D|------------------------------------------------------------------|

CHORUS: 1:26  

Lead Guitar#1
e|------------------------------------------------------------------|
B|------------------------------------------------------------------|
G|--3-5-----------------------------3-5-----------------------------|
D|--3-5-----5----5----5----5----4h5-3-5-----5----5----5----5----4h5-|
A|--1-3---0----0----0----0----0-----1-3---0----0----0----0----0-----|
D|------0----0----0----0----0-----------0----0----0----0----0-------|
        * *  * *  * *  * *  * *         * *  * *  * *  * *  * *

e|------------------------------------------------------------------|
B|------------------------------------------------------------------|
G|--3-5-------------------------------------------------------------|
D|--3-5-----5----5----5----5----4h5-3-----2-----3-----4-------------|
A|--1-3---0----0----0----0----0-----1-----5-----5-----7-------------|
D|------0----0----0----0----0---------------------------------------|
        * *  * *  * *  * *  * *  
LEAD BREAK: 1:48
 
e|------------------------------------------------------------------|
B|------------------------------------------------------------------|
G|------------------------------------------------------------------|
D|------------------------------------------------------5-7-8-7-5---|
A|--2h3h4-2h3h4-2h3h4-2h3h4 2h3h5/7-5-7-8-7-8-7-8-8-7-8-----------8-|
D|------------------------------------------------------------------|

e|-----------------------------------------------7-8-10-8-7--7---8--|
B|-----------------------------7-8-7-10-7-8-7-10-----------10-10----|
G|---------------7-8-10-7-8-10--------------------------------------|
D|-10-7-8-10-7-8----------------------------------------------------|
A|------------------------------------------------------------------|
D|------------------------------------------------------------------|

e|-6p5---5----------------------------------------------------------|
B|----h8--h8-6p5p5h8p6p5-----5--------------------------------------|
G|-----------------------7-5---7~-----------------------------------|
D|------------------------------------------------------------------|
A|------------------------------------------------------------------|
D|------------------------------------------------------------------|

                    |----PLAY VERSE AGAIN-------|
                    |----PLAY PRE-CHORUS AGAIN--|
                    |----PLAY CHORUS AGAIN------|

SOLO INTRO: 2:59
Lead Guitar#1
e|------------------------------------------------------------------|
B|------------------------------------------------------------------|
G|--7~--9/10-9-7-3/5--3---------------------------------------------|
D|--x---x-x--x-x-x-x--x-8-7-8~--7-8-7-------------------------------|
A|--5~--7/8--7-5-5/7--5-x-x-x---x-x-x-------------------------------|
D|----------------------8-7-8~--7-8-7-0-----------------------------|


Rhythm Guitar during solo: (starting at 2:59)
e|------------------------------------------------------------------|
B|------------------------------------------------------------------|
G|--------------------5---3-----------------------------------------| (X1)
D|--------------------5---3-----2-----------------------------------|
A|--------------------3---1-----0-----------------------------------|
D|--0000000000000000------------------------------------------------|
    ****************


e|------------------------------------------------------------------|
B|------------------------------------------------------------------|
G|------------------------------------5---3-------------------------| (X3)
D|------------------------------------5---3-----2-------------------|
A|------------------------------------3---1-----0-------------------|
D|--00000000000000000000000000000000--------------------------------|
    ********************************

e|------------------------------------------------------------------|
B|------------------------------------------------------------------|
G|--7-7-xx-7-7-xx-7-7-x-9-xx-6/7-7~---------------------------------| (X4)
D|--x-x-xx-x-x-xx-x-x-x-x-xx-x-x------------------------------------|
A|--5-5-xx-5-5-xx-5-5-x-7-xx-4/5-5~---------------------------------|
D|------------------------------------------------------------------|


SOLO: 3:06
Lead Guitar#1
e|------------------------------------------------------------------|
B|------------------------------------------------------------------|
G|------------------------------------------------------------------|
D|------------------------------------------------------------------|
A|-3h5p3h5p3h5p3h5p3h5p3h5p3h5p3h5p3h5p/7-5-7h8p7\5h7/8-7h8h10p8p7h8|
D|------------------------------------------------------------------|

e|-------------------------------------------------5h6h8p6p5---5----|
B|-------------------------------------------5h6h8-----------8---8--|
G|-------------------------------5h7h8p5h7-8------------------------|
D|-7h8h10p8p7----------7h8p7\5h7------------------------------------|
A|-----------h10p8p7h8----------------------------------------------|
D|------------------------------------------------------------------|

e|-----------------------------------------------------5------------|
B|-6p5---5h6h8-8b10~~--8br10~--8b10r8-6-8-5h6p5---------------------|
G|-----7----------------------------------------7---5-7-7~----------|
D|------------------------------------------------7-----------------|
A|------------------------------------------------------------------|
D|------------------------------------------------------------------|

e|------------------------------------------------5h6h8p6p5---5h6p5-|
B|-x8b10----8b10r8p6-5-6-5-5b6-5b6-5b6~-6p5h6h8p6-----------8-------|
G|-x----------------------------------------------------------------|
D|-x----------------------------------------------------------------|
A|-x----------------------------------------------------------------|
D|------------------------------------------------------------------|

e|-h6/8p6h8/10p8h10/12\10p8h10/12h13p12p10h12h13p12p10----12p10h13p-|
B|-----------------------------------------------------13-----------|
G|------------------------------------------------------------------|
D|------------------------------------------------------------------|
A|------------------------------------------------------------------|
D|------------------------------------------------------------------|

e|-10h13/15p13h15/17h18-18 18b20~-18b20r18/15h17h18p17p15-----------|
B|--------------------------------------------------------16b-------|
G|------------------------------------------------------------------|
D|------------------------------------------------------------------|
A|------------------------------------------------------------------|
D|------------------------------------------------------------------|

e|-13p12p10--10---------13p12p10--10---------13p12p10--10-----------|
B|---------13--13p11p10---------13--13p11p10---------13--13p11p10---|
G|------------------------------------------------------------------|
D|------------------------------------------------------------------|
A|------------------------------------------------------------------|
D|------------------------------------------------------------------|

e|-13p12p10--10---------13p12p10--10--------------------------------|
B|---------13--13p11p10---------13--13p11p10-13p12p10--10-----------|
G|---------------------------------------------------13--13p12p10---|
D|------------------------------------------------------------------|
A|------------------------------------------------------------------|
D|------------------------------------------------------------------|

e|-13p12p10--10-----------------------------------------------------|
B|---------13--13p11p10---------------------------------------------|
G|----------------------13p12p10--10--------------------------------|
D|------------------------------13--13p12p10-13p12p10--14p13p11-----|
A|---------------------------------------------------13--------14---|
D|------------------------------------------------------------------|

e|------------------------------------------------------------------|
B|-----------------------------------------------15-----------------|
G|-15p14p12---16p15p13---17p16p15h17b19r17p15-17----17b19~~---------|
D|---------15---------16--------------------------------------------|
A|------------------------------------------------------------------|
D|------------------------------------------------------------------|

BREAKDOWN 1: 3:41

Lead Guitar#1
e|----------------------------------------------------------------17|
B|-6~---5-6-8-5~--6-8-6~---5-6-8-5~--5-6/11~--13b15-13-11-13~--13b--|
G|------------------------------------------------------------------|
D|------------------------------------------------------------------|
A|------------------------------------------------------------------|
D|------------------------------------------------------------------|

e|-13b15r~--15~-15~--17~-17~-17b18~---------------------------------|
B|------------------------------------------------------------------|
G|------------------------------------------------------------------|
D|------------------------------------------------------------------|
A|------------------------------------------------------------------|
D|------------------------------------------------------------------|

Rhythm Guitar: 3:41
e|------------------------------------------------------------------|
B|------------------------------------------------------------------|
G|--3-------5-------3-------5-------3-------5-----------------------|
D|--3-------5-------3-------5-------3-------5-------3---5---5---7---|
A|--1-------3-------1-------3-------1-------3-------1---2---3---4---|
D|------------------------------------------------------------------|

  (4:04)
e|------------------------------------------------------------------|
B|------------------------------------------------------------------|
G|------------------------------------------------------------------|
D|------------------------------------------------------------------|
A|------------------------------------------------------------------|
D|-0000000000000000000000000000000000000000000000000000000000000000-|
   ****************************************************************


Lead Guitar#1                                (4:12-4:15)
e|-------------------------------22==--19==--18==--17==--16==--15==-|
B|------------------------------------------------------------------|
G|------------------------------------------------------------------|
D|------------------------------------------------------------------|
A|------------------------------------------------------------------|
D|------------------------------------------------------------------|

               |---------PLAY CHORUS AGAIN---------|
                              (4:15)


BREAKDOWN 2: 4:38
Lead Guitar#1
e|------------------------------------------------------------------|
B|------------------------------------------------------------------|
G|------------------------------------------------------------------|
D|------------------------------------------------------------------|
A|------------------------------------------------------------------|
D|-000000000000000000000000000000000-1515151515151515\16161616\1515-|
   ********************************* ****************************** 

e|------------------------------------------------------------------|
B|------------------------------------------------------------------|
G|------------------------------------------------------------------|
D|-----------------------------5~------------------5~---------------|
A|------10-9-8-7-6-5--4~-------3~--------4~--------3~---------------|
D|1515--10-9-8-7-6-5--4~-----------------4~-------------------------|
  ****  *  * * * * *

                |--------REPEAT INTRO X2--------|
Tap to rate this tab
# A B C D E F G H I J K L M N O P Q R S T U V W X Y Z