Song name
# A B C D E F G H I J K L M N O P Q R S T U V W X Y Z

Slash - Nothing To Say tab

Tabbed by: aweisti

Tuning: 
FULL STEP DOWN (dGCFAD)
Although there are a number of tabs for this they are in Drop D
tuning which is wrong, so I attempted to try one myself.
Still some adjustments I think on the solo! 

Having watched a live video of Slash playing this it is clear 
that he likes to change around with different chords and
improvises a lot on lead, so this is the album version.


--- KEY --- 

h - HAMMER ON
p - PULL OFF
b - BEND
* - PALM MUTE
/ - SLIDE UP
\ - SLIDE DOWN
+ - TREMELO PICK
~ - VIBRATO



INTRO
Lead Guitar1
d|------------------------------------------------------------------|
G|------------------------------------------------------------------|
C|------------------------------------------------------------------| x4
F|------------------------------------------------------------------|
A|----------6-5~-5-6-4--------------6-5~-5-6-4----------------------|
D|-4~-3h4-7------------7---4~-3h4-7------------7--------------------|

Lead guitar2
d|-11--11--11--11--10--10--10--10--11--11--11--11--13---------------|
G|-14b-14b-14b-14b-13b-13b-13b-13b-14b-14b-14b-14b-16b~-------------|
C|------------------------------------------------------------------| 
F|------------------------------------------------------------------|
A|------------------------------------------------------------------|
D|------------------------------------------------------------------|

Rhythm guitar
d|------------------------------------------------------------------|
G|------------------------------------------------------------------|
C|------------------------------------------------------------------|
F|-----7-------7----------------7-------7---------------------------|
A|-6---5---6---5---6---5-6-5-6--5---6---5---------------------------|
D|-4-------4-------4---3-4-3-4------4-------------------------------|
                       * * * *

Lead guitar1
d|------------------------------------------------------------------|
G|------------------------------------------------------------------|
C|------------------------------------------------------------------| x4
F|------------------------------------------------------------------|
A|-----7-----10-----7-----9-----6/7---------------------------------|
D|-0-7---0-7----0-7---0-7---0-7-------------------------------------|
   * *   * *    * *   * *   * *

d|------------------------------------------------------------------|
G|------------------------------------------------------------------|
C|------------------------------------------------------------------| 
F|------------------------------------------------------------------|
A|-2---2---2---2---2---2---2---2------------------------------------|
D|-0---0---0---0---0---0---0---0------------------------------------|

Lead guitar1 and Rhythm
d|------------------------------------------------------------------|
G|------------------------------------------------------------------|
C|------------------------------------------------------------------| x4
F|------------------------------------------------------------------|
A|-----7-----10-----7-----9-----6/7---------------------------------|
D|-0-7---0-7----0-7---0-7---0-7-------------------------------------|
   * *   * *    * *   * *   * *


VERSE:

d|------------------------------------------------------------------|
G|------------------------------------------------------------------|
C|------------------7---5--5-4--------------------------------------| x1
F|------------------7---5--5-4--------------------------------------|
A|------------------5---3--3-2--------------------------------------|
D|-0000000000000000-------------------------------------------------|  
   ****************

d|------------------------------------------------------------------|
G|------------------------------------------------------------------|
C|----------------------------------7---5--5-4----------------------| x2
F|----------------------------------7---5--5-4----------------------|
A|----------------------------------5---3--3-2----------------------|
D|-00000000000000000000000000000000---------------------------------|
   ********************************

d|------------------------------------------------------------------|
G|------------------------------------------------------------------|
C|----------------------------------7---5---------------------------| x1
F|----------------------------------7---5--5-7----------------------|
A|----------------------------------5---3--5-7----------------------|
D|-00000000000000000000000000000000--------3-5----------------------|
   ********************************


PRE CHORUS:

d|-------------------------|      d|--------------------------------|
G|-------------------------|      G|--------------------------------|
C|-7-7--7-7--7-7--9-xx-6/7-| x2   C|-12-12--12-12--12-12--14--11/12-| x1
F|-x-x--x-x--x-x--x-xx-x-x-|      F|-x--x---x--x---x--x---x---x--x--|
A|-5-5--5-5--5-5--7-xx-4/5-|      A|-10-10--10-10--10-10--12--9-/10-|
D|-------------------------|      D|--------------------------------|
  
d|-------------------------|     
G|-------------------------|      
C|-7-7--7-7--7-7--9-xx-6/7-| x1  
F|-x-x--x-x--x-x--x-xx-x-x-|     
A|-5-5--5-5--5-5--7-xx-4/5-|     
D|-------------------------| 

Rhythm guitar
d|------------------------------------------------------------------|
G|------------------------------------------------------------------|
C|------------------------------------------------------------------| x4
F|------------------------------------------------------------------|
A|-----7-----10-----7-----9-----6/7---------------------------------|
D|-0-7---0-7----0-7---0-7---0-7-------------------------------------|
   * *   * *    * *   * *   * *

CHORUS:


d|------------------------------------------------------------------|
G|------------------------------------------------------------------|
C|-5-----7----------------------------------------------------------| x3
F|-5-----7----------------------------------------------------------|
A|-3-----5------5-----5-----5-----5-----4/5-------------------------|
D|----------0-7---0-7---0-7---0-7---0-7-----------------------------|
          * *   * *   * *   * *   * *

d|------------------------------------------------------------------|
G|------------------------------------------------------------------|
C|-5----------------------------------------------------------------| x1
F|-5-----7-----7-----9----------------------------------------------|
A|-3-----4-----5-----6----------------------------------------------|
D|------------------------------------------------------------------|

LEAD GUITAR BREAK:
(Its so hard to distinguish notes so its probably best to just improvise
around these sort of notes like Slash does when he plays this live).

d|------------------------------------------------------------------|
G|--------------------------------------------------------------7h8-|
C|-----------------------------------------------------7h8p7h10-----| 
F|-------------------5h6p5----5h6h8-5-6/8-6h8/9-7h8h10--------------|
A|-4-5-7-4-5-7-5-6-8-------h8---------------------------------------|
D|------------------------------------------------------------------|
   * * * * * * * * *    

d|--------------------7-----7h8h10p8h7-----7h6p7h10p7-10p8p7-----7--|
G|-p7----7h8h9-7h8h10---h10------------h10-------------------h10----|
C|----10------------------------------------------------------------| 
F|------------------------------------------------------------------|
A|------------------------------------------------------------------|
D|------------------------------------------------------------------|
                
d|------------------------------------------------------------------|
G|-10p8p7-10p8p7----7-----------------------------------------------|
C|---------------h9---h9p8p7-9~-------------------------------------| 
F|------------------------------------------------------------------|
A|------------------------------------------------------------------|
D|------------------------------------------------------------------| 

VERSE
PRE CHORUS
CHORUS

SOLO:

d|------------------------------------------------------------------|
G|------------------------------------------------------------------|
C|-9~-11/12-11-9-7/9-7-7\5-5~-4-5\4~--------------------------------| 
F|-x--x--x--x--x-x-x-x-x-x-x--x-x-x--------0h2p0h2p0h2p0h2p0h2p0h2p-|
A|-7~-9-/10-9--7-5/7-5-5\3-3~-2-3\2~--------------------------------|
D|-----------------------------------0------------------------------|


d|------------------------------------------------------------------|
G|------------------------------------------------------------------|
C|------------------------------------------------------------------| 
F|-0h2p0h2p0h2p0h2/4h5p4h5p4----h4h5h7p5p4h5h7p5p4----5h6p5h7-4h7p4-|
A|---------------------------h7--------------------h7---------------|
D|------------------------------------------------------------------|


d|------------------------------------------------------------------|
G|-------------------------------------------5h6p5----5-------------|
C|----------------------4h5p4----4h5h7-5h6h7-------h7---7-5h7/9-7h9-| 
F|-h5p4---5h6p5h6h7-5h7-------h7------------------------------------|
A|------7-----------------------------------------------------------|
D|------------------------------------------------------------------|

I'll finish off the solo and outro parts when I get time.
Tap to rate this tab
# A B C D E F G H I J K L M N O P Q R S T U V W X Y Z