Song name
# A B C D E F G H I J K L M N O P Q R S T U V W X Y Z

Slash - Were All Gonna Die tab

Slash - We're All Gunna Die Intro
--------------------------------------

Hey guys, no tabs for this yet so here's the intro.

Tabbed by: Kozine(aka Ben Youle)

Link to me playing it: http://www.youtube.com/watch?v=fsr88TyO8QM

--------------------------------------

E|---------------------------------------------------------------|
B|---------------------------------------------------------------|
G|-----9--9-9-7s9--9-7-7-7-----------------------------7-7---7s9-| x 4
D|-----9--9-9-7s9--9-7-7-7-5-5-5s7--7--7--7-7-5s7--5-5-7-7-7-7s9-|
A|-----7--7-7-5s7--7-5-5-5-5-5-5s7--7--7--7-7-5s7--5-5-5-5-7-5s7-|
E|--0----------------------3-3-3s5--5--5--5-5-3s5--3-3-----5-----|

I'll try my best to work out the rest
Tap to rate this tab
# A B C D E F G H I J K L M N O P Q R S T U V W X Y Z