Song name
# A B C D E F G H I J K L M N O P Q R S T U V W X Y Z

Slash - Saint Is A Sinner Too tab

--------------------------------------------|
-13-12-13------------13-12-15-13------------|
--------------------------------------------|
-----------14-13-14-------------------------|
--------------------------------------------|
--------------------------------------------|

--------------------------------------------|
-12-13--------------------------------------|
-------14-----------------------------------|
---------14-12----------------12-14---------|
---------------15-14--12---15---------------|
--------------------------------------------|

---------------------------------------------|
---------------------------------------------|
------------------------------------------12-|
-14-15-14----14-15-14-12-15---14-15-14-12----|
---------------------------------------------|
---------------------------------------------|

--------------------------------------------|
------------------------13----13-15---------|
-------------14---12-14----14---------------|
-14-15-14-12--------------------------------|
--------------------------------------------|
--------------------------------------------|

--------------------------------------------|
-15-13-17-15---15-13-15---13-12-13-12-------|
--------------------------------------------|
--------------------------------------------|
--------------------------------------------|
--------------------------------------------|

--------------------------------------------|
-10-12-10-----------------------------------|
-----------12-------------------------------|
--------------------------------------------|
--------------------------------------------|
--------------------------------------------|
Tap to rate this tab
# A B C D E F G H I J K L M N O P Q R S T U V W X Y Z