Song name
# A B C D E F G H I J K L M N O P Q R S T U V W X Y Z

Slash - Godfather Theme tab

For some newer players who do not know how to tune for different songs, this is the 
theme for standard tuning.


||---------------------------------|--------------------------------|
||---14~----13-14-15~--14--14------|--14~----13-14-15~--14--14------|
||*----------------------------14~-|----------------------------13~-|
||*--------------------------------|--------------------------------|
||---------------------------------|--------------------------------|
||---------------------------------|--------------------------------|

------------------------------|---------------------------------||
--14~----13-14-17~--14--15----|--14r---------------13r----------||
------------------------------|------14--15--14----------13~---*||
------------------------------|--------------------------------*||
------------------------------|---------------------------------||
------------------------------|---------------------------------||

||-------9--12--11---9--12---9--11--|---9----------------------|
||---9------------------------------|------10---12-9-~---------|
||----------------------------------|--------------------------|
||----------------------------------|--------------------------|
||----------------------------------|--------------------------|
||----------------------------------|--------------------------|

|--------12--11--9---12---9--11--|--9-----------------------|
|---9----------------------------|------9/---8-7------------|
|--------------------------------|--------------------------|
|--------------------------------|--------------------------|
|--------------------------------|--------------------------|
|--------------------------------|--------------------------|

------------------------|-----5--8--8r---------|
-----5---9--9r----------|--7-------------------|
--6---------------------|----------------------|
------------------------|----------------------|
------------------------|----------------------|
------------------------|----------------------|

------------------------------|--------------------------|
----------12r-10--9--10-------|--9-----------------------|
------9-----------------------|--------------------------|
--11--------------------------|------10/-11~-------------|
------------------------------|--------------------------|
------------------------------|--------------------------|

---9--9--8--7----9/-11--9----|--------------------------------|
------------------------------|--10--9----9--12--9--7---------|
------------------------------|-------------------------------|
------------------------------|-------------------------------|
------------------------------|-------------------------------|
------------------------------|-------------------------------|

------------------------9----|
--7--10--8--9~-----9---------|
-----------------------------|
-----------------------------|
-----------------------------|
-----------------------------|

|--12-11-9--12-11-9--12-11-9----------------------------------------|
|-----------------------------11--11--11--11-9-11-9-8-9-11-9-8------|
|-------------------------------------------------------------------|
|-------------------------------------------------------------------|
|-------------------------------------------------------------------|
|-------------------------------------------------------------------|

|-12-11-9-8-9-11-9-8-------8---------------------------------------|
|-----------------------9-----9-11-9-8----8----11------------------|
|---------------------------------------10---10----10-8----8-------|
|-------------------------------------------------------10---10----|
|------------------------------------------------------------------|
|------------------------------------------------------------------|

|-----------------------------8-9----------------------------------|
|--------12-10-9-12-10-9-9-----------------------------------------|
|-----9------------------------------------------------------------|
|-/11--------------------------------------------------------------|
|------------------------------------------------------------------|
|------------------------------------------------------------------|
Tap to rate this tab
 
# A B C D E F G H I J K L M N O P Q R S T U V W X Y Z