Song name
# A B C D E F G H I J K L M N O P Q R S T U V W X Y Z

Slash - Gotten tab

My first tab ever. Giving back to the community.
There are some nice Tabs for this Intro but Slash plays it different as you can see at 
where he performed it at Ellen.
Here's how Slash plays the Intro.
Feel free to comment or make any suggestions.
Thanks and keep on rockin'!

(/) Slide Up  (\) Slide Down  (h) Hammer On  (p) Pull Off  (b) Bend (r) Release (v) Vibrato

E|---------------------------------------|
B|-------------------7-------------------|
G|-----9-----8h9--------9-----8h9-----9--|
D|--------9-------9--------9-------9-----|
A|---------------------------------------|
E|--9------------------------------------|

E|---------------------------------------|
B|-------------------7-------------------|
G|-----9-----8h9--------9-----8h9-----9--|
D|--------9-------9--------9-------9-----|
A|--0------------------------------------|
E|---------------------------------------|

E|---------------------------------------|
B|-------------------7-------------------|
G|--------9-----8h9-----9-----8h9-----9--|
D|-----------9-------------9-------9-----|
A|---------------------------------------|
E|--0--9---------------------------------|

E|--------------------------|
B|--------------------------|
G|--------8-----9-----8-----|
D|-----9-----9-----9-----9--|
A|--------------------------|
E|--7-----------------------|

E|------------------------------|
B|----------------7-------------|
G|-------------9-----9----------|
D|---------10-----------10------|
A|-----10-------------------10--|
E|--8---------------------------|

And back again...
Tap to rate this tab
# A B C D E F G H I J K L M N O P Q R S T U V W X Y Z