Song name
# A B C D E F G H I J K L M N O P Q R S T U V W X Y Z

Slash - Watch This tab

Hi everyone, my name is Jake English and this is my first tab. It is just
what ive kind of guessed from listening to the song watch this so im sorry
if it isnt accurate. Its only the first halve of the song cause the rest is
just too much of a trek to figure out so enjoy =)

 Tuning: Drop D

Intro with Talk Box:

e|-------------------------------------------------------|
b|-------------------------------------------------------|
g|-------------------------------------------------------|
d|---0-----0------3-------0-----0------3---0-------------|
a|-----3-----2----1---------3-----2----1-----1-0-7-0-5/4-|
d|-0-----0-----0--------0-----0-----0----------0-7-0-5/4-|

Main riff:

e|-------------------------------------|
b|-------------------------------------|
g|-------------------------------------|x4
d|-0-12/10-0-12/9-0-8--12/8-0-7bp0-5-4-|
a|-0-12/10-0-12/9-0-8--12/8-0-7bp0-5-4-|
d|-0-12/10-0-12/9-0-8--12/8-0-7bp0-5-4-|

First bridge riff:

e|-------------10---------|     e|-------------10--|
b|-10-8--10-8--11----10-7-|     b|-10-8--10-8--11--|
g|-7--7--7--7--10----7--7-| x3  g|-7--7--7--7--10--|
d|------------------------|     d|-----------------|
a|------------------------|     a|-----------------|
d|------------------------|     d|-----------------|

1st solo part:

e|----------------------------------------------------------------|
b|-------------------------------------------------------------10-|
g|--9h10p9--7--9b----9h10p9--7------9h10p9--7--9b----9h10p9--7----|
d|-----------------------------7----------------------------------|
a|----------------------------------------------------------------|
d|----------------------------------------------------------------|

e|--------------------------------------------|
b|--10b--10--8b--8----------------------------|
g|-----------------10--9h10p9h10p9h10p9--7----|
d|-----------------------------------------7--|
a|--------------------------------------------|
d|--------------------------------------------|

e|-----------------------------------------------------------|
b|------------------------------7h8p7h8p7h8--9h10p9h10p9h10--|
g|--6h7p6h7p6h7--9h10p9h109h10-------------------------------|
d|-----------------------------------------------------------|
a|-----------------------------------------------------------|
d|-----------------------------------------------------------|

e|------------------------------------------------------------|
b|--10h11p10h11p10--8h10p8h10p8-------------------------------|
g|-------------------------------10h12p10h12p10--8h10p8h10p8--|
d|------------------------------------------------------------|
a|------------------------------------------------------------|
d|------------------------------------------------------------|

e|--------------------------------------------------|
b|--------------------------------------------------|
g|--7--9--6--7----9--9b--9--9-9-9--10---10-10-10-10-|
d|-------------------9b--9--9-9-9-------------------|
a|--------------------------------------------------|
d|--------------------------------------------------|


e|------5-5-----5-5-----5-5--------------|
b|------5-5-----5-5-----5-5--------------|
g|--7b------7b------7b-------7p5--7p5----|
d|-------------------------------------7-|
a|---------------------------------------|
d|---------------------------------------|

e|-------17--15-------17--15-------17p15h17p15--17-|
b|--16b----------16b----------16b------------------|
g|-------------------------------------------------|
d|-------------------------------------------------|
a|-------------------------------------------------|
d|-------------------------------------------------|

e|--17--15--17--19b--19--17--15-------------------15-----|
b|-------------------------------17--15--13--15b------15-|
g|-------------------------------------------------------|
d|-------------------------------------------------------|
a|-------------------------------------------------------|
d|-------------------------------------------------------|

Second Bridge riff:

e|---------------10--|
b|--10-8--10-8---11--|
g|--7--7--7--7---10--| x2
d|-------------------|
a|-------------------|
d|-------------------|

Second solo:

e|--------------------------------------------------------------------|
b|----------------------------------------------------------------10--|
g|--9h10p9--7--9b----9h10p9--7-------9h10p9--7--10b----9h10p9--7------|
d|------------------------------7-------------------------------------|
a|--------------------------------------------------------------------|
d|--------------------------------------------------------------------|

e|---------------------------------------------------|
b|--10b--10--8b--8-----------------------------------|
g|------------------10--9h10p9h10p9h10p9h10p9--7-----|
d|------------------------------------------------7--|
a|---------------------------------------------------|
d|---------------------------------------------------|

e|-----------------------------------------------------------------|
b|----------------------9--10--9-----------------------------------|
g|-----7--9--10--7--10------------10--7--10--9--10--9--9--7--6--7--|
d|--7--------------------------------------------------------------|
a|-----------------------------------------------------------------|
d|-----------------------------------------------------------------|

e|----------------8--10--|
b|---------8--10---------|
g|--7--10----------------|
d|-----------------------|
a|-----------------------|
d|-----------------------|
Tap to rate this tab
 
# A B C D E F G H I J K L M N O P Q R S T U V W X Y Z