Song name
# A B C D E F G H I J K L M N O P Q R S T U V W X Y Z

Slash - Saint Is A Sinner Too tab

Standard tuning: EADGBe
Use fingers or play along with the chords
I dont have all the chords and the solo part is already tabbed.

I know its not 100% right, but we'll get there once there are more tabs released.

Legend:

/	slide up
\	slide down
h	hammer-on
p	pull-off

Am:      x02210
D:       xx0212
Dsus4:   xx0213
Dm:      xx0211
F:       xx3210
F/E:     xx2210
F/D#:    xx1210

Part 1:
    Am                    Am
e-----0000-0000-0000-0000---0000-0000-0000-0000-|
B-----1111-1111-1111-1111---1111-1111-1111-1111-|
G---------2----2----2-----------2----2----2-----|
D-----------------------------------------------|
A---0---------------------0---------------------|
E-----------------------------------------------|


Part 2:
    Am                    Am         F
e-----0000-0000-0000-0000---0000-0000-0000-0000-0000-0000-|
B-----1111-1111-1111-1111---1111-1111-1111-1111-1111-1111-|
G---------2----2----2-------------------------------2-----|
D------------------------------------3----2----1----------|
A---0----------------------0----3-------------------------|
E---------------------------------------------------------|


Part 3:
   D                    D
e----2222-2222-2222-2222---2222-2222-2222-2222-|
B----1111-1111-1111-1111---1111-1111-1111-1111-|
G--------2----2----2-----------2----2----2-----|
D---0---------------------0--------------------|
A----------------------------------------------|
E----------------------------------------------|
    Am                    Am
e-----0000-0000-0000-0000---0000-0000-0000-0000-|
B-----1111-1111-1111-1111---1111-1111-1111-1111-|
G---------2----2----2-----------2----2----2-----|
D-----------------------------------------------|
A---0---------------------0---------------------|
E-----------------------------------------------|


Part 4:
   D                    D
e----2222-2222-2222-2222---2222-2222-2222-2222-|
B----1111-1111-1111-1111---1111-1111-1111-1111-|
G--------2----2----2-----------2----2----2-----|
D---0---------------------0--------------------|
A----------------------------------------------|
E----------------------------------------------|
   Dsus4                  D         Dm
e----3333-3333-3333-3333---2222-2222-1111-1111-|
B----1111-1111-1111-1111---1111-1111-1111-1111-|
G--------2----2----2-----------2----2----2-----|
D---0---------------------0--------------------|
A----------------------------------------------|
E----------------------------------------------|


Intro=1xpart 1

Am
2xPart 1
Hold my hands down

Am              F  F/E  F/D#
Part 2
So they don't reach for you

D
Part 3
In case you don't know
Am
A saint is a sinner too

Riff:
e--------------|
B---6--5--4--5-|
G--------------|
D--------------|
A--------------|
E--------------|

Am
Part 2
Blind my eyes
  F  F/E F/D#
So I can't see

D
Part 4
What coming for you
                Dsus4   D   Dm
Is coming for me

Riff:
e--0--0-0--0---0-0-0--0-0-0-0-0-0-0---0-0-----|
B--1--0-1--1/5-5-3-0--0-3-5-5-3-1-1h3-1-1h3---|
G--0----------------------------------------2-|
D---------------------------------------------|
A---------------------------------------------|
E---------------------------------------------|

or

Riff:
e--------0-0--0---0-0-0--0-0-0-0-0-0-0---0-0----|
B----1---0-1--1/5-5-3-0--0-3-5-5-3-1-1h3-1-1h3--|
G-0h2-----------------------------------------2-|
D-----------------------------------------------|
A-----------------------------------------------|
E-----------------------------------------------|
Tap to rate this tab
 
# A B C D E F G H I J K L M N O P Q R S T U V W X Y Z