Song name
# A B C D E F G H I J K L M N O P Q R S T U V W X Y Z

Slash - Watch This tab

WATCH THIS DAVE (SLASH FEAT. DAVE GROHL & DUFF McKAGAN)
2 guitars,both tuned DROP-D
(My very first tab ever, unnecessary screwing up won't help :P)

INTRO

E|-------------------| |-------------------|----------------------|
B|-------------------| |-------------------|----------------------|
G|-------------------| |-------------------|----------------------|
D|-------------------| |-------------------|----------------------|
A|-------------------| |-------------------|----------------------|
D|-0-12-10-0-12-9-0-8| |-0-12-10-0-12-9-0-8|-0-12-8-0-7-0-5-4>>>>>|

E|--------------------|-----------------|
B|--------------------|-----------------|
G|--------------------|-----------------|-REPEAT 4 TIMES (RIFF A)
D|---0-----0----------|---0-------------|
A|-----3-----2---1----|-----1---0-------|
D|-0-----0-----0------|-0-----0---0-5-4-|

E|--------------------|--------------------|
B|-10-8-10-7-11---8p7-|-10-8-10-7-11---8---|
G|-7--7-7--7-10---7---|-7--7-7--7-10---7---|-REPEAT TWICE, WITH RIFF A
D|--------------------|--------------------| BEING PLAYED w/PALM MUTING
A|--------------------|--------------------|
D|--------------------|--------------------|

E|-------------------|-------------------|
B|-------------------|----------------9b-|
G|-9b-7-7b---9b-7----|-9b-7-7b---9b-7----|
D|---------------(7)-|-------------------|
A|-------------------|-------------------|
D|-------------------|-------------------|
......thats all i've been able to do.
let me come up with more of it....till then,
KEEP PRACTICING!
Tap to rate this tab
 
# A B C D E F G H I J K L M N O P Q R S T U V W X Y Z