Song name
# A B C D E F G H I J K L M N O P Q R S T U V W X Y Z

Slash - Gotten tab

Solo Gotten - Slash

I learnt this by ear, and this is the first time i tabbed a song, but i think its 
pretty accurate. I thought i'd tab it 
cause i couldnt find any other tabs.
For questions : Jochemkleine@hotmail.com

The "First" part of the solo goes like this:

E |-------------------|-------------------------|------------------------|--------------------|
B |-2---2---2--2------|--7---7---7------5----5--|---5----5-----7---7---7-|--5---5---5---5-----|
G |-4b--4b--4b-4b-----|--9b--9b--9b-----7b---7b-|---7b---7b----9b--9b--9b|--7b--7b--7b--7b----|
d |-------------------|-------------------------|------------------------|--------------------|
A |-------------------|-------------------------|------------------------|--------------------|
E |-------------------|-------------------------|------------------------|--------------------|


E |-------------------|-2-------------|
B |-2------2----2-----|---2-----------|
G |-4b-3-4-4b---4b----|---4~-4~-------|
D |-------------------|---------4-----|
A |-------------------|---------------|
E |-------------------|---------------|

Then repeat:


E |-------------------|-------------------------|------------------------|--------------------|
B |-2---2---2--2------|--7---7---7------5----5--|---5----5-----7---7---7-|--5---5---5---5-----|
G |-4b--4b--4b-4b-----|--9b--9b--9b-----7b---7b-|---7b---7b----9b--9b--9b|--7b--7b--7b--7b----|
D |-------------------|-------------------------|------------------------|--------------------|
A |-------------------|-------------------------|------------------------|--------------------|
E |-------------------|-------------------------|------------------------|--------------------|

Followed by:

E |-------------------|-------------------------|
B |--9----9----9------|---7-----7---------------|
G |-11b---11b--11b----|---9b----9b--------------|
D |-------------------|-------------------------|
A |-------------------|-------------------------|
E |-------------------|-------------------------|


"Second part" :

E |--6----------------|---9---9---9--9----------|------------------------|----7-7b--------12--12-|
B |-----5--7--9b 9b7r-|--9b(hold)9b--9b--9r7----|-9-10-10~-10~-10~---5s7-|-10------10-7---12b-12r|
G |-------------------|-------------------------|------------------------|-----------------------|
D |-------------------|-------------------------|------------------------|-----------------------|
A |-------------------|-------------------------|------------------------|-----------------------|
E |-------------------|-------------------------|------------------------|-----------------------|

E |--------------------|-------------------------|------------------------|----------------------|
B |-11-12b--11-12-12p11|-------------------------|----------12b-----------|----------------------|
G |--------------------|-11----------------------|------------------------|----------------------|
D |--------------------|----11--9-8----8-9-9/11--|--14--11----------------|----------------------|
A |--------------------|------------9------------|------------------------|----------------------|
E |--------------------|-------------------------|------------------------|----------------------|

~ = Vibrate
r = Release
b = Bend

-Tabbed By Jochem Keine-
Tap to rate this tab
 
# A B C D E F G H I J K L M N O P Q R S T U V W X Y Z