Slash - Saint Is A Sinner Too tab

-----------------------------------------------------------------------------|
------------------------Slash - Saint Is A Sinner Too------------------------|
-----------------------------------------------------------------------------|


Tabbed by: ylarilea


Video example: http://www.youtube.com/watch?v=D9-tNewcPTc


Tuning: Standard


SOLO:

---------------------------------------------|
------13-12-13------------13-12-15-13--------|
---------------------------------------------|
--14------------14-13-14---------------------|
---------------------------------------------|
---------------------------------------------|

---------------------------------------------|
--12-13--------------------------------------|
--------14-----------------------------------|
-----------14-12---------------------12-14---|
-----------------15-14--15p14p12--15---------|
---------------------------------------------|

---------------------------------------------|
---------------------------------------------|
----------------------------------12---------|
--14-15-14--14h15r14-15--14h15r14------------|
---------------------------------------------|
---------------------------------------------|

---------------------------------------------|
---------------------13----13h15-------------|
-----------14--10s12----12-------------------|
--14h15r14-----------------------------------|
---------------------------------------------|
---------------------------------------------|

---------------------------------------------|
--15-13-15s17-15--15-13-15--13-12-13-12------|
---------------------------------------------|
---------------------------------------------|
---------------------------------------------|
---------------------------------------------|

---------------------------------------------|
--10h12r10-----------------------------------|
-----------12--------------------------------|
---------------------------------------------|
---------------------------------------------|
---------------------------------------------|
Tap to rate this tab
 
# A B C D E F G H I J K L M N O P Q R S T U V W X Y Z