Slash - Back From Cali tab

Slash
Back From Cali
Full Tab!
Tuning Standard EBGDAE

Intro, Verse w/ a little distortion.
4 Times
e|----------------------------------------------------------------------|
B|---------------3-------------------------------5-\--3--3--------------|
G|-----2h4-------4---4--2--4--2------1-----------4-\--2--2--2-----------|
D|-4---------------------------------2------4h6--6-\--4--4--------------|
A|-2------------------------------------------------------------0-------|
E|----------------------------------------------------------------------|

e|----------------------------------------------------------------------|
B|---------------3-------------------------------5-\--3--3--------------|
G|-----2h4-------4---4--2--4--2------4-----------4-\--2--2--2-----------|
D|-4---------------------------------2------4h6--6-\--4--4--------------|
A|-2------------------------------------------------------------0-------|
E|----------------------------------------------------------------------|

Chorus:

e|-----------------------------------------------------------------------|
B|---------------------------------------------------------3---3---------|
G|---4---4----4----0----4----4----4----4-------------------2---2--2------|
D|---4---4----4----0----4----4----4----4----2---2----------0---0--2------|
A|---2---0----2----0----2----0----2----0----2---2-----------------0------|
E|------------------------------------------0---0----2h-4----------------|

Bridge:

e|--------------------------------------------------------------------------|
B|---------------------------------------------------7--6--5----------------|
G|---------------------------------------------------8--7--6----------------|
D|-5--5--5-5---5h7--7--7---x-x-x-9--7h9--7h9---7h9--------------------| X 3-|
A|-5--5--5-5---5h7--7--7---x-x-x-9--7h9--7h9---7h9--------------------------|
E|-3--3--3-3---3-5--5--5---x-x-x-7--7----7-----7-----7--6--5----------------|

e|--------------------------------------------------------------------------|
B|--------------------------------------------------------------------------|
G|--------------------------------------------------------------------------|
D|---5--5--5-5---5h7--7--7-7----4--4--4-4---7-7--x-x-x----------------------|
A|---5--5--5-5---5h7--7--7-7----4--4--4-4---7-7--x-x-x----------------------|
E|---3--3--3-3---5----5--5-5----2--2--2-2---5-5--x-x-x----------------------|

Solo:

e|-------------------------------------------------------7\5----------------|
B|----9b-(9)---9b--9b---9b---------9-9-------------------------7--6--5------|
G|----9b-(9)---9b--9b---9b-9----7--9-9---7---7--9--7------------------------|
D|-----------------------------------------9----------9---------------------|
A|--------------------------------------------------------------------------|
E|--------------------------------------------------------------------------|


e|---------------------------10---------------------------------------------|
B|----5h7p5--5---3-------12-------12--17b--r15---12------15b~~~~~-----------|
G|---------------------------------------------------13---------------------|
D|--------------------------------------------------------------------------|
A|--------------------------------------------------------------------------|
E|--------------------------------------------------------------------------|

e|-------------19--17------17-----------------------------------------------|
B|--------19b----------19-----------17--16b---------------------------------|
G|-----------------------------18-------------------------------------------|
D|--------------------------------------------------------------------------|
A|--------------------------------------------------------------------------|
E|--------------------------------------------------------------------------|

Outro:
4x
e|--------------------------------------------------------------------------|
B|--------------------------------------------------------------------------|
G|--4--4--4--4--4--4-----4-4---4-4------------------------------------------|
D|--4--4--4--4--4--4-----4-4---4-4------------------------------------------|
A|--2--2--0--2--0--2-----0-2---0-2------------------------------------------|
E|--------------------------------------------------------------------------|

e|---------------------------------------------------------------------|
B|---------------------------------------------------------------------|
G|-----------------------------2--2--2--2--2--2---4~~~\0---------------|
D|--5--5--5--5--5--5---5-5-5---2--2--2--2--2--2---4~~~\0---------------|
A|--5--5--5--5--5--5---5-5-5---0--0--0--0--0--0---2~~~\0---------------|
E|--3--3--3--3--3--3---3-3-3-------------------------------------------|
Tap to rate this tab
 
# A B C D E F G H I J K L M N O P Q R S T U V W X Y Z