Song name
# A B C D E F G H I J K L M N O P Q R S T U V W X Y Z

Slash - Mother Maria tab

-------------------------------------------------------------------------------
			     Mother Maria - Slash & Beth Hart
-------------------------------------------------------------------------------
Tabbed by: MAMS
Email: afiq_mams@yahoo.com

Tuning: Standard

e|---------------------------------------------------------------------------|
B|-6~------------------------------------------------------------------------|
G|----7----------------------------------------------------------------------|
D|------7----3/6-9-5-7-------------------------------------------------------|
A|--------5-7-----------7-----------7-7-7h8p7-5-5----------------------------|
E|------------------------8-5--5-8-------------------------------------------|

e|-------5-8-7-5-4---5---------------5-8-7-5-5h7-----------------------------|
B|-----6-----------5------5--------5-----------------------------------------|
G|---7----------------------5----5-------------------------------------------|
D|-7--------------------------7----------------------------------------------|
A|---------------------------------------------------------------------------|
E|---------------------------------------------------------------------------|


************************************

| /   slide up
| \   slide down
| h   hammer-on
| p   pull-off
| ~   vibrato
| +   harmonic
| x   Mute note
| b   Bend
| pb  Pre-bend
| br  Bend release
| pbr Pre-bend release
| brb Bend release bend

************************************
Tap to rate this tab
 
# A B C D E F G H I J K L M N O P Q R S T U V W X Y Z