Song name
# A B C D E F G H I J K L M N O P Q R S T U V W X Y Z

Slash - Nothing To Say tab

This is that lead solo part after the first chorus of the song. It's based on another 
that i thought was wrong. I think it's pretty tough to get it totally right but it sounds 
like this.


--------------------------------------------------9-10-12-13-13-12-10-9-12-10--|
------------------------------------------8-10-11------------------------------|
-----------------------------6-7-9-7-9-10--------------------------------------|
---------------5-7-8-8-5-7-8---------------------------------------------------|
-4-5-7-8-5-7-8-----------------------------------------------------------------|
-------------------------------------------------------------------------------|


-9----10-9-------9-------------------------------------------------------------|
---11------11-10---11-10-8-11-10-8----10-8------8------------------------------|
-----------------------------------10------10-9---10-9-7-10-9-7-6-7------------|
-------------------------------------------------------------------------------|
-------------------------------------------------------------------------------|
-------------------------------------------------------------------------------|
Tap to rate this tab
 
# A B C D E F G H I J K L M N O P Q R S T U V W X Y Z