Slash - Beautiful Dangerous tab

Beautiful Dangerous (Feat. Fergie)
Slash
Slash - 2010


READ THIS:
The first part of this tab are the figures, the second part 
is the order they are in the song.
This is my first tab ever so some parts might be wrong.This song
is played in standard tuning on the Treble pickup. The timing
is pretty easy for it so just listen and you'll get it.
Please e-mail me with any improvements or corrections.
Thanks, and enjoy! ^.^ -Muderaffi 





Intro (Figure A.)


e|-----------------|
B|-----------------| 
G|-----------------|
D|-----4----5------| 
A|-----4----5------|
E|-----2----3------|


Intro part 2 (Figure B.)

e|-------------|
B|-------------|
G|-------------| 
D|------4------| 
A|------4------|
E|------2------|


(Figure C.)

e|-----------------------|
B|-----------------------|
G|-------------2-4-------|
D|-------------2-4-------|
A|-------------0-2-------|
E|------2---4------------|


Verse (Figure D.)


e|-------------------------------------------------------|
B|-------------------------------------------------------|
G|--------------------------------------------------2-4--|
D|------2-4--4~~~---2-4--------2-4--4~~~---2-4------2-4--|
A|------2-4---------2-4--------2-4---------2-4------0-2--|
E|------0-2---------0-2--------0-2---------0-2-----------|


Chorus (Figure E.)


e|--------------------------------------------------|
B|--------------------------------------------------|
G|--------------------------------------------------|
D|------2-4--------------4~~~-----------------------|
A|------2-4-----------------------------------------|
E|------0-2--2--4--5--7-----------------------------|

Chorus part 2 (Figure F.)

e|--------------------------------------------------|
B|--------------------------------------------------|
G|-------4b--4---2----------------------------------|
D|--------------------------------------------------|
A|--------------------------------------------------|
E|--------------------------------------------------|

Chorus part 3 (Figure G.) *Note* this riff was 
hard to tab because Fergie sings loudly during it
so it may be wrong, but I think it's pretty
close.*

e|--------------------------------------------------|
B|---------------------10b--------------------------|
G|------11b-----11p9---------9-9h10p9---------------|
D|-------------------10-----------------------------|
A|--------------------------------------------------|
E|--------------------------------------------------|

e|--------------------------------------------------|
B|-------------------8b-----------------------------|
G|------9b-----9p7---------7-7h8p7------------------|
D|-----------------8--------------------------------|
A|--------------------------------------------------|
E|--------------------------------------------------|


e|--------------------------------------------------|
B|-----------------------------------10b------------|
G|--------------------------------9-----------------|
D|------10--10--11--10--9------9--------------------|
A|-------------------------10-----------------------|
E|--------------------------------------------------|

e|--------------------------------------------------|
B|--------------------------------------------------|
G|--------------------------------------------------|
D|------10--10--11--10--9---------------------------|
A|--------------------------------------------------|
E|--------------------------------------------------|


Solo (Not yet tabbed)


The song goes like this:

Intro

Figure A.
Figure B.
Figure C.
FIgure B.
FIgure C.

Verse

Figure D.
Figure D.

Chorus 

Figure E.
Figure E.
Figure E.
Figure F.
Figure E.
Figure E.
Figure E.
Figure F.
Figure G.
Figure G.
Figure G.
Figure E.
Figure E.
FIgure E.
FIgure F.

Solo

Figure G. until the song ends
Tap to rate this tab
 
# A B C D E F G H I J K L M N O P Q R S T U V W X Y Z