Slash - By The Sword tab

By The Sword - Slash + Andrew Stockdale

e[-------------------------------------------------------------------------|
b[-------------------------------------------------------------------------|
g[-----------5---7h-7b---4--5--------------5--7h-7b-7b-7b---5--7h----------|
d[----5/--7--------------------3-----5/--7-------------------------4-------|
a[-------------------------------------------------------------------------|
E[-------------------------------------------------------------------------|


----------------------------------------------------------------------------|
-------------------7b-------------------------------------------------------|
-----------5--7h----------10--10--9p--10-----9--10h--9p--7p--9h--7\--5------|
---5/--7--------------------------------------------------------------------|
----------------------------------------------------------------------------|
----------------------------------------------------------------------------|


----------------------------------------14b------------17--13--12--13h------|
------------------------15b---13b--12b-------------13-----------------------|
---4--5h--5/--14----14-------------------------14---------------------------|
----------------------------------------------------------------------------|
----------------------------------------------------------------------------|
----------------------------------------------------------------------------|


--12\--8--12--8--7--8--7--7-8h-7p----------15b--15b--15------15-------------|
----------------------------------10----8----------------17------17--16-----|
--------------------------------------9-------------------------------------|
----------------------------------------------------------------------------|
----------------------------------------------------------------------------|
----------------------------------------------------------------------------|


--------------------------------15------------------------------------------|
--15------------------------------------------------------------------------|
-----17--19h--14p--17h--19--17-----19b-----19b-19b-19b-19b---17--19h--17h---|
----------------------------------------------------------------------------|
----------------------------------------------------------------------------|
----------------------------------------------------------------------------|


----------------------------------------15b----17--19--19b--19b--17-19b-----|
----------------------------------------------------------------------------|
--16--17h--16--16--17h--16p--14p--------------------------------------------|
---------------------------------14--17-------------------------------------|
----------------------------------------------------------------------------|
----------------------------------------------------------------------------|


---17----20b--20-----17-17---17--15----------------------------15-----------|
------17-----------------------------17-16-15-15\-13/-17----17-----17\-15---|
----------------------------------------------------------------------------|
----------------------------------------------------------------------------|
----------------------------------------------------------------------------|
----------------------------------------------------------------------------|


---------------------]
--13---15h-15/--17---]
---------------------]
---------------------]
---------------------]
---------------------]
Tap to rate this tab
 
# A B C D E F G H I J K L M N O P Q R S T U V W X Y Z