Song name
# A B C D E F G H I J K L M N O P Q R S T U V W X Y Z

Slash - Were All Gonna Die tab

THis is the tab for we're all gonna die.... i made a better version coz my older one was crap....
please tell me any problems 
and email me on 
master333yoda@gmail.com

BY the way this is pretty rough just giving u a basic idea of how the song goes...

ENJOY AND GOOD LUCK

Intro

Guitar 1

e|-------------------------------------------------------------------------|
B|-------------------------------------------------------------------------|
G|-----9--9-7--9--9-7-7---------------------------7-7---7/9----------------|
D|-----9--9-7--9--9-7-7-5-5/7--7-7--7-7--5-7--5-5-7-7-7-7/9----------------|
A|-----7--7-7--7--7-5-5-5-5/7--7-7--7-7--5-7--5-5-5-5-7-5/7----------------|
E|--0-------------------3-3/5--5-5--5-5--3-5--3-3-----5--------------------|


Guitar 2

e|-------------------------------|
B|-------------------------------|
G|--9--------------7-7---7/9-----|
D|--9---7------5-5-7-7-7-7/9-----|
A|--7---7------5-5-5-5-7-5/7-----|
E|------5------3-3-----5---------|

Guitar 1 Carries on playing

e|-------------------------------------------------------------------------|
B|-------------------------------------------------------------------------|
G|-----9--9-7--9--9-7-7---------------------------7-7---7/9----------------|
D|-----9--9-7--9--9-7-7-5-5/7--7-7--7-7--5-7--5-5-7-7-7-7/9----------------|
A|-----7--7-7--7--7-5-5-5-5/7--7-7--7-7--5-7--5-5-5-5-7-5/7----------------|
E|--0-------------------3-3/5--5-5--5-5--3-5--3-3-----5--------------------|


Guitar 1&2

e|-------------------------------------------------------------------------|
B|-----8--8-7--8--8-7-7----------------------------------------------------|
G|-----9--9-7--9--9-7-7-4-4-6--6-6--6-6--4-6------7-7---7/9----------------|
D|-----9--9-7--9--9-7-7-5-5/7--7-7--7-7--5-7--5-5-7-7-7-7/9----------------|
A|-----7--7-5--7--7-5-5-5-5/7--7-7--7-7--5-7--5-5-5-5-7-5/7----------------|
E|--0-------------------3-3/5--5-5--5-5--3-5--3-3-----5--------------------|

e|-------------------------------------------------------------------------|
B|-----8--8-7--8--8-7-7----------------------------------------------------|
G|-----9--9-7--9--9-7-7-4-4-6--6-6--6-6--4-6------7-7---7/9----------------|
D|-----9--9-7--9--9-7-7-5-5/7--7-7--7-7--5-7--5-5-7-7-7-7/9----------------|
A|-----7--7-5--7--7-5-5-5-5/7--7-7--7-7--5-7--5-5-5-5-7-5/7----------------|
E|--0-------------------3-3/5--5-5--5-5--3-5--3-3-----5--------------------|



Verse (CLEAN)

e|---------------------------------------------------|
B|------8---------10-------8--------10---------------|
G|----9---------9--------9--------9------------------|
D|--9--------11--------9-------11--------------------|
A|---------------------------------------------------|
E|---------------------------------------------------|

Pre- Chorus


Rhythym Guitar

e|------------------------------------------------------------------------|
B|------------------------------------------------------------------------|
G|---------------------4-4--x-4-4--4-x-4--7-7--x-7-7--7-x-7---------------|
D|--5-5--x-5-5--5-x-5--4-4--x-4-4--4-x-4--7-7--x-7-7--7-x-7--7-7-x-7-7----|
A|--5-5--x-5-5--5-x-5--2-2--x-2-2--2-x-2--5-5--x-5-5--5-x-5--7-7-x-7-7----|
E|--3-3--x-3-3--3-x-3----------------------------------------5-5-x-5-5----|


Lead Guitar

e|------------------------------------------------17--------------------|
B|---------------------------17b15-17b-17b-17b(19)--17--15-17-14--------|
G|--14br12-14b---18br16-18b---------------------------------------------|
D|----------------------------------------------------------------------|
A|----------------------------------------------------------------------|
E|----------------------------------------------------------------------|


Guitar 1&2

e|---------------------|
B|---------------------|
G|-------7-7---7/9-----|
D|---5-5-7-7-7-7/9-----|
A|---5-5-5-5-7-5/7-----|
E|---3-3-----5---------|


Chorus


Guitar 1&2

e|-------------------------------------------------------------------------|
B|-----8--8-7--8--8-7-7----------------------------------------------------|
G|-----9--9-7--9--9-7-7-4-4-6--6-6--6-6--4-6------7-7---7/9----------------|
D|-----9--9-7--9--9-7-7-5-5/7--7-7--7-7--5-7--5-5-7-7-7-7/9----------------|
A|-----7--7-5--7--7-5-5-5-5/7--7-7--7-7--5-7--5-5-5-5-7-5/7----------------|
E|--0-------------------3-3/5--5-5--5-5--3-5--3-3-----5--------------------|

e|-------------------------------------------------------------------------|
B|-----8--8-7--8--8-7-7----------------------------------------------------|
G|-----9--9-7--9--9-7-7-4-4-6--6-6--6-6--4-6------7-7---7/9----------------|
D|-----9--9-7--9--9-7-7-5-5/7--7-7--7-7--5-7--5-5-7-7-7-7/9----------------|
A|-----7--7-5--7--7-5-5-5-5/7--7-7--7-7--5-7--5-5-5-5-7-5/7----------------|
E|--0-------------------3-3/5--5-5--5-5--3-5--3-3-----5--------------------|

e|-------------------------------------------------------------------------|
B|-----8--8-7--8--8-7-7----------------------------------------------------|
G|-----9--9-7--9--9-7-7-4-4-6--6-6--6-6--4-6------7-7---7/9----------------|
D|-----9--9-7--9--9-7-7-5-5/7--7-7--7-7--5-7--5-5-7-7-7-7/9----------------|
A|-----7--7-5--7--7-5-5-5-5/7--7-7--7-7--5-7--5-5-5-5-7-5/7----------------|
E|--0-------------------3-3/5--5-5--5-5--3-5--3-3-----5--------------------|

e|-------------------------------------------------------------------------|
B|-----8--8-7--8--8-7-7----------------------------------------------------|
G|-----9--9-7--9--9-7-7-4-4-6--6-6--6-6--4-6------7-7---7/9----------------|
D|-----9--9-7--9--9-7-7-5-5/7--7-7--7-7--5-7--5-5-7-7-7-7/9----------------|
A|-----7--7-5--7--7-5-5-5-5/7--7-7--7-7--5-7--5-5-5-5-7-5/7----------------|
E|--0-------------------3-3/5--5-5--5-5--3-5--3-3-----5--------------------|



Verse (CLEAN)

e|------------------------------------------------------------------------|
B|------8---8--7/8---8---7/8--------------10---10----8/10------8-7--------|
G|----9---9--------9---9-------9--------9----9----9--7/9-----7-----7---7--|
D|--9--------9---------------9-------11-------------------9----------7----|
A|------------------------------------------------------------------------|
E|------------------------------------------------------------------------|


e|------------------------------------------------------------------------|
B|------8---8--7/8---8---7/8--------------10---10----8/10------8-7--------|
G|----9---9--------9---9-------9--------9----9----9--7/9-----7-----7---7--|
D|--9--------9---------------9-------11-------------------9----------7----|
A|------------------------------------------------------------------------|
E|------------------------------------------------------------------------|



Pre- Chorus


Rhythym Guitar

e|------------------------------------------------------------------------|
B|------------------------------------------------------------------------|
G|---------------------4-4--x-4-4--4-x-4--7-7--x-7-7--7-x-7---------------|
D|--5-5--x-5-5--5-x-5--4-4--x-4-4--4-x-4--7-7--x-7-7--7-x-7--7-7-x-7-7----|
A|--5-5--x-5-5--5-x-5--2-2--x-2-2--2-x-2--5-5--x-5-5--5-x-5--7-7-x-7-7----|
E|--3-3--x-3-3--3-x-3----------------------------------------5-5-x-5-5----|


Lead Guitar

e|------------------------------------------------17--------------------|
B|---------------------------17b15-17b-17b-17b(19)--17--15-17-14--------|
G|--14br12-14b---18br16-18b---------------------------------------------|
D|----------------------------------------------------------------------|
A|----------------------------------------------------------------------|
E|----------------------------------------------------------------------|


Chorus


Guitar 1&2

e|-------------------------------------------------------------------------|
B|-----8--8-7--8--8-7-7----------------------------------------------------|
G|-----9--9-7--9--9-7-7-4-4-6--6-6--6-6--4-6------7-7---7/9----------------|
D|-----9--9-7--9--9-7-7-5-5/7--7-7--7-7--5-7--5-5-7-7-7-7/9----------------|
A|-----7--7-5--7--7-5-5-5-5/7--7-7--7-7--5-7--5-5-5-5-7-5/7----------------|
E|--0-------------------3-3/5--5-5--5-5--3-5--3-3-----5--------------------|

e|-------------------------------------------------------------------------|
B|-----8--8-7--8--8-7-7----------------------------------------------------|
G|-----9--9-7--9--9-7-7-4-4-6--6-6--6-6--4-6------7-7---7/9----------------|
D|-----9--9-7--9--9-7-7-5-5/7--7-7--7-7--5-7--5-5-7-7-7-7/9----------------|
A|-----7--7-5--7--7-5-5-5-5/7--7-7--7-7--5-7--5-5-5-5-7-5/7----------------|
E|--0-------------------3-3/5--5-5--5-5--3-5--3-3-----5--------------------|

e|-------------------------------------------------------------------------|
B|-----8--8-7--8--8-7-7----------------------------------------------------|
G|-----9--9-7--9--9-7-7-4-4-6--6-6--6-6--4-6------7-7---7/9----------------|
D|-----9--9-7--9--9-7-7-5-5/7--7-7--7-7--5-7--5-5-7-7-7-7/9----------------|
A|-----7--7-5--7--7-5-5-5-5/7--7-7--7-7--5-7--5-5-5-5-7-5/7----------------|
E|--0-------------------3-3/5--5-5--5-5--3-5--3-3-----5--------------------|

e|-------------------------------------------------------------------------|
B|-----8--8-7--8--8-7-7----------------------------------------------------|
G|-----9--9-7--9--9-7-7-4-4-6--6-6--6-6--4-6------7-7---7/9----------------|
D|-----9--9-7--9--9-7-7-5-5/7--7-7--7-7--5-7--5-5-7-7-7-7/9----------------|
A|-----7--7-5--7--7-5-5-5-5/7--7-7--7-7--5-7--5-5-5-5-7-5/7----------------|
E|--0-------------------3-3/5--5-5--5-5--3-5--3-3-----5--------------------|



Bridge


e|------------------------------------------------|
B|------------------------------------------------|
G|------------------------------------------------|
D|-2-4--2-2----2--2-4--2-2---2-2--4--2-2----2--2-4|
A|-0-0--0-0----0--0-0--0-0---0-0--0--0-0----0--0-0|
E|----------3b-------------3-------------3b-------|

--------------------------------------------------|
--------------------------------------------------|
--------------------------------------------------|
--2-2---0--4-6--4-4-4-4--4-6--4-4-4-4-4--6--4-4-4-|
--0-0---0--2-2--2-2-0-2--2-2--2-2-0-2-2--2--2-2-0-|
------3-------------------------------------------|

e|--------------------|
B|--------------------|
G|-x-x-x-x-x-x-x-x----|
D|-x-x-x-x-x-x-x-x----|
A|-x-x-x-x-x-x-x-x----|
E|-0-0-0-0-0-0-0-0----|



SOLO


e|----12--12------15b-15--12--12------------------------------------------------------|
B|----15b-15br-12---------15b-15br--14--14h15p14p12h14p12-----------------------------|
G|--------------------------------------------------------14h12-14br-12---------------|
D|-2--------------------------------------------------------------------14------------|
A|-2----------------------------------------------------------------------------------|
E|-0----------------------------------------------------------------------------------|

e|-----------------------------------------------------------------12-----------------|
B|----------------------12-15p12----12-----------------------12-15--------------------|
G|-12h14-12----12h14-12----------14----14br-12-----12--12-13--------------------------|
D|----------14---------------------------------14-------------------------------------|
A|------------------------------------------------------------------------------------|
E|------------------------------------------------------------------------------------|

e|-19br--17h19p17-------17br--17--17--15-17-17--17-15h17p15---------------------------|
B|----------------17----------------------------------------17-15-17-15---------------|
G|-----------------------------------------------------------------------14-14br-12---|
D|---------------------------------------------------------------------------------14-|
A|------------------------------------------------------------------------------------|
E|------------------------------------------------------------------------------------|


e|------------------------------------------------------------------------------------|
B|---------------------------------------------------------15--17-17br(1/2)--15-------|
G|--14b------x--16-18-16-18br(1/2)-16-18b(1/2)-------x--16----------------------16----|
D|------------------------------------------------------------------------------------|
A|------------------------------------------------------------------------------------|
E|------------------------------------------------------------------------------------|



e|-------17-------17-------17---------------------------------------------------------|
B|--17b------17b------17b------17b-17br--15-------------------------------------------|
G|------------------------------------------------------------------------------------|
D|------------------------------------------------------------------------------------|
A|------------------------------------------------------------------------------------|
E|------------------------------------------------------------------------------------|


The Second Lead guitar in the solo does this on Pre chorus part


e|------------------------------------------------17--------------------|
B|---------------------------17b15-17b-17b-17b(19)--17--15-17-14--------|
G|--14br12-14b---18br16-18b---------------------------------------------|
D|----------------------------------------------------------------------|
A|----------------------------------------------------------------------|
E|----------------------------------------------------------------------|



Guitar 1&2

e|---------------------|
B|---------------------|
G|-------7-7---7/9-----|
D|---5-5-7-7-7-7/9-----|
A|---5-5-5-5-7-5/7-----|
E|---3-3-----5---------|



Chorus


Guitar 1&2

e|-------------------------------------------------------------------------|
B|-----8--8-7--8--8-7-7----------------------------------------------------|
G|-----9--9-7--9--9-7-7-4-4-6--6-6--6-6--4-6------7-7---7/9----------------|
D|-----9--9-7--9--9-7-7-5-5/7--7-7--7-7--5-7--5-5-7-7-7-7/9----------------|
A|-----7--7-5--7--7-5-5-5-5/7--7-7--7-7--5-7--5-5-5-5-7-5/7----------------|
E|--0-------------------3-3/5--5-5--5-5--3-5--3-3-----5--------------------|

e|-------------------------------------------------------------------------|
B|-----8--8-7--8--8-7-7----------------------------------------------------|
G|-----9--9-7--9--9-7-7-4-4-6--6-6--6-6--4-6------7-7---7/9----------------|
D|-----9--9-7--9--9-7-7-5-5/7--7-7--7-7--5-7--5-5-7-7-7-7/9----------------|
A|-----7--7-5--7--7-5-5-5-5/7--7-7--7-7--5-7--5-5-5-5-7-5/7----------------|
E|--0-------------------3-3/5--5-5--5-5--3-5--3-3-----5--------------------|

e|-------------------------------------------------------------------------|
B|-----8--8-7--8--8-7-7----------------------------------------------------|
G|-----9--9-7--9--9-7-7-4-4-6--6-6--6-6--4-6------7-7---7/9----------------|
D|-----9--9-7--9--9-7-7-5-5/7--7-7--7-7--5-7--5-5-7-7-7-7/9----------------|
A|-----7--7-5--7--7-5-5-5-5/7--7-7--7-7--5-7--5-5-5-5-7-5/7----------------|
E|--0-------------------3-3/5--5-5--5-5--3-5--3-3-----5--------------------|

e|-------------------------------------------------------------------------|
B|-----8--8-7--8--8-7-7----------------------------------------------------|
G|-----9--9-7--9--9-7-7-4-4-6--6-6--6-6--4-6------7-7---7/9----------------|
D|-----9--9-7--9--9-7-7-5-5/7--7-7--7-7--5-7--5-5-7-7-7-7/9----------------|
A|-----7--7-5--7--7-5-5-5-5/7--7-7--7-7--5-7--5-5-5-5-7-5/7----------------|
E|--0-------------------3-3/5--5-5--5-5--3-5--3-3-----5--------------------|

e|----|
B|----|
G|-4--|
D|-4--|
A|-2--|
E|----|



Play the chorus 4 more times while the lead slash is improvising

e|-------------------------------------------------------------------------|
B|-----8--8-7--8--8-7-7----------------------------------------------------|
G|-----9--9-7--9--9-7-7-4-4-6--6-6--6-6--4-6------7-7---7/9----------------|
D|-----9--9-7--9--9-7-7-5-5/7--7-7--7-7--5-7--5-5-7-7-7-7/9----------------|
A|-----7--7-5--7--7-5-5-5-5/7--7-7--7-7--5-7--5-5-5-5-7-5/7----------------|
E|--0-------------------3-3/5--5-5--5-5--3-5--3-3-----5--------------------|

e|-------------------------------------------------------------------------|
B|-----8--8-7--8--8-7-7----------------------------------------------------|
G|-----9--9-7--9--9-7-7-4-4-6--6-6--6-6--4-6------7-7---7/9----------------|
D|-----9--9-7--9--9-7-7-5-5/7--7-7--7-7--5-7--5-5-7-7-7-7/9----------------|
A|-----7--7-5--7--7-5-5-5-5/7--7-7--7-7--5-7--5-5-5-5-7-5/7----------------|
E|--0-------------------3-3/5--5-5--5-5--3-5--3-3-----5--------------------|

e|-------------------------------------------------------------------------|
B|-----8--8-7--8--8-7-7----------------------------------------------------|
G|-----9--9-7--9--9-7-7-4-4-6--6-6--6-6--4-6------7-7---7/9----------------|
D|-----9--9-7--9--9-7-7-5-5/7--7-7--7-7--5-7--5-5-7-7-7-7/9----------------|
A|-----7--7-5--7--7-5-5-5-5/7--7-7--7-7--5-7--5-5-5-5-7-5/7----------------|
E|--0-------------------3-3/5--5-5--5-5--3-5--3-3-----5--------------------|

e|-------------------------------------------------------------------------|
B|-----8--8-7--8--8-7-7----------------------------------------------------|
G|-----9--9-7--9--9-7-7-4-4-6--6-6--6-6--4-6------7-7---7/9----------------|
D|-----9--9-7--9--9-7-7-5-5/7--7-7--7-7--5-7--5-5-7-7-7-7/9----------------|
A|-----7--7-5--7--7-5-5-5-5/7--7-7--7-7--5-7--5-5-5-5-7-5/7----------------|
E|--0-------------------3-3/5--5-5--5-5--3-5--3-3-----5--------------------|

THE END
Tap to rate this tab
# A B C D E F G H I J K L M N O P Q R S T U V W X Y Z