Song name
# A B C D E F G H I J K L M N O P Q R S T U V W X Y Z

Slash - The Godfather tab

e ---0---5--8--7--5--8--5--7--5--1--3--0---------|
b -----------------------------------------------|
g -----------------------------------------------|
d -----------------------------------------------|
a -----------------------------------------------|
e -----------------------------------------------|

e ---0---5--8--7--5--8--5--7--5--0---------------|
b-----------------------------------------3--2---|
g -----------------------------------------------|
d -----------------------------------------------|
a -----------------------------------------------|
e -----------------------------------------------|

e ------3--4--5---------------3--5--6------------|
b ---2----------------------2--------------------|
g -----------------------------------------------|
d -----------------------------------------------|
a -----------------------------------------------|
e -----------------------------------------------|
Tap to rate this tab
# A B C D E F G H I J K L M N O P Q R S T U V W X Y Z