Song name
# A B C D E F G H I J K L M N O P Q R S T U V W X Y Z

Slash - Anastasia tab

Artist: Slash              Tuning: E A D G B E
Song  : Anastasia          Version 1
Album : Apocalyptic Love

E----12-11-12-9-12-11-12-|----12-11-12-9-12-11-12-|----12-11-12-9-12-11-12-|
B-9----------------------|-9----------------------|-10---------------------|
G------------------------|------------------------|------------------------|
D------------------------|------------------------|------------------------|
A------------------------|------------------------|------------------------|
E------------------------|------------------------|------------------------|

E----12-11-12-9-12-11-12-|----14-12-14-11-14-12-14|----14-12-14-11-14-12-14|
B-10---------------------|-11---------------------|-11---------------------|
G------------------------|------------------------|------------------------|
D------------------------|------------------------|------------------------|
A------------------------|------------------------|------------------------|
E------------------------|------------------------|------------------------|

E----14-12-14-11-14-12-14|----14-12-14-11-14-12-14|----16-14-16-11-16-14-16|
B-12---------------------|-12---------------------|-13---------------------|
G------------------------|------------------------|------------------------|
D------------------------|------------------------|------------------------|
A------------------------|------------------------|------------------------|
E------------------------|------------------------|------------------------|

E----16-14-16-11-16-14-16|----16-12-16-11-16-12-16|----16-12-16-11-16-12-16|
B-13---------------------|-14---------------------|-14---------------------|
G------------------------|------------------------|------------------------|
D------------------------|------------------------|------------------------|
A------------------------|------------------------|------------------------|
E------------------------|------------------------|------------------------|

E----17-16-17----16-14-16|----14-13-14----14-13-14|----12-11-12----12-11-12|
B-14----------13---------|-12-----------11--------|-10-----------9---------|
G------------------------|------------------------|------------------------|
D------------------------|------------------------|------------------------|
A------------------------|------------------------|------------------------|
E------------------------|------------------------|------------------------|

E----11-10-11----11-10-11|------------------------|------------------------|
B-8----------------------|-9-12-11-12----8-11-9-11|--7-11-9-11-----9-8-9---|
G--------------8---------|------------------------|-------------6----------|
D------------------------|------------------------|------------------------|
A------------------------|------------------------|------------------------|
E------------------------|------------------------|------------------------|

E------------------------|------------------------|
B--5-9-8-9-----7-6-7-----|--6b7r------------------|
G------------4-----------|---------8-8------------|
D------------------------|------------------------|
A------------------------|------------------------|
E------------------------|------------------------|
Tap to rate this tab
 
# A B C D E F G H I J K L M N O P Q R S T U V W X Y Z