Song name
# A B C D E F G H I J K L M N O P Q R S T U V W X Y Z

Slash - Hard And Fast tab

-------------------------------------------------------------------------------
                                                    HARD AND FAST - Slash
-------------------------------------------------------------------------------
Tabbed by: cody.guitar.96
E-mail: cody.guitar.96@hotmail.it

Tuning: Half Down

Intro
e|--12--12----12-----------15-15-------------------12-12-15-12-----------15---|
B|--12-----12--------------15-15-------------------12-12-15-12-----------15---|
G|---------------14--------------14br-12-14-12-14--------------14-------------|
D|------------------12---------------------------------------------12---------|
A|---------------------14---------------------------------------------14------|
E|----------------------------------------------------------------------------|

Main Riff
e|----------------------------------------|
B|----------------------------------------|
G|----------------------------------------|
D|--5/7-7-5-----------5/7-5---------------|
A|----------7-5-3-0---------7-0-5-0-3-----|
E|----------------------------------------|

Verse
e|---------------------------------------------------------------------------|
B|---------------------------------------------------------------------------|
G|---------------------------------------------------------------------------|
D|--7--7-5--7--5-7--7-5--7--5------------------------------------------------|
A|--5--5-3--5--3-5--5-3--5--3------------------------------------------------|
E|---------------------------------------------------------------------------|

Pre-chorus
e|--------------------------------------------------------------|
B|--------------------------------------------------------------|
G|--------------------------------------------------------------|
D|--------------------------------------------------------------|
A|--5/7-7-5-----------5/7-5------------5/7-7-5----------5/7/----|
E|----------7-5-3-0---------7-0-5-0-3----------7-5-3-0----------|

Chorus
e|-----|-----|-----|-------------------|
B|-----|-----|-----|-------------------|
G|-----|-----|-----|-------------------|
D|--2--|--5--|--7--|--8----------------|
A|--0--|--3--|--5--|--6--5-0-5-3-0-----|
E|-----|-----|-----|-------------------|

e|-----|-----|-----|-------------------|
B|-----|-----|-----|-------------------|
G|-----|-----|-----|-------------------|
D|--2--|--5--|--7--|-------------------|
A|--0--|--3--|--5--|--*6-*5--*6-*5-----|
E|-----|-----|-----|-------------------|

e|-----|-----|-----|-----------------|-----|-----|-----|
B|-----|-----|-----|-----------------|-----|-----|-----|
G|-----|-----|-----|-----------------|-----|-----|-----|
D|--2--|--5--|--7--|--8--------------|--5--|--7--|--2--|
A|--0--|--3--|--5--|--6--5-0-5-3-0---|--3--|--5--|--0--|
E|-----|-----|-----|-----------------|-----|-----|-----|

During the solo
e|-----|-----|-----|-------|     |-------------------|     |------------------|
B|-----|-----|-----|-------|     |-------------------|     |------------------|
G|-----|-----|-----|-------|     |-------------------|     |--7--7------------|
D|-----|-----|-----|-------|     |--2--2-----2-4-2---|     |--6--6------------|
A|--2--|--2--|--2--|-------|     |--0--0-3-4-----0---|     |--7--7-5----------|
E|--0--|--0--|--0--|--17/--|     |-------------------|     |---------7-5-3-0--|

e|-----|-----|-----|--------------------|
B|-----|-----|-----|--------------------|
G|-----|-----|-----|--------------------|
D|--5--|--7--|--9--|--9-10-11-12-13-----|
A|--3--|--5--|--7--|--7-8--9--10-11-----|
E|-----|-----|-----|--------------------|


************************************

| /   slide up
| \   slide down
| h   hammer-on
| p   pull-off
| ~   vibrato
| *   harmonic
| x   Mute note
| b   Bend
| pb  Pre-bend
| br  Bend release
| pbr Pre-bend release
| brb Bend release bend

************************************
Tap to rate this tab
# A B C D E F G H I J K L M N O P Q R S T U V W X Y Z