Guitaretab - guitar tabs
Song name
# A B C D E F G H I J K L M N O P Q R S T U V W X Y Z

Slash - No More Heroes tab

----------------------------------------------------------------------------
      No More Heroes - Slash Featuring Myles Kennedy and the Conspirators
----------------------------------------------------------------------------
Tabbed by: Fahad Khan
E-mail: fhad_khan@hotmail.com

Tuning: D#ADGBe


"No More Heroes" is the fifth song off of Slash's second album, Apocalyptic Love, 
released on May 22, 2012. The album only came out a few days ago and I've only heard this song 
a couple of times or so since then, and this was all I could figure out so far.
This is my first tab too.

Intro 0:04

e|------------------------------------------------------------|
B|------------------------------------------------------------|
G|-\12~~--11~--\13~-15--13b15--12~~--11~~--10~~--12p10-9~~----|
D|------------------------------------------------------------|
A|------------------------------------------------------------|
E|------------------------------------------------------------|


Main Riff

e|-----------------------------------|
B|-----------------12-------------12-|
G|----------13-----------13----------|
D|--------------14-----------14------|
A|-----------------------------------|
E|--\12--12--------------------------|
[ Tab from: http://www.guitaretab.com/s/slash/316889.html ]
e|---------------------------------|
B|--------------12-------------12--|
G|------12-------------12----------|
D|----------12-------------12------|
A|---------------------------------|
E|--10-----------------------------|

e|--------------------------------|
B|-------------10-------------10--|
G|-----11-------------11----------|
D|---------12-------------12------|
A|--------------------------------|
E|--9-----------------------------|

e|--------------------------------|
B|--------------14--14b15r14--12--|
G|------14------------------------|
D|----------14--------------------|
A|--12----------------------------|
E|--------------------------------|  x2

At the end, the second guitarist plays this:

E|--|
B|--|
G|--|
D|-9|
A|-9|
E|--|

Verse 0:35

Both Guitarists

e|---------------------|
B|---------------------|
G|---------------------|
D|--9----7----7----5---|
A|--9----9----7----7---|
E|---------------------| x2


For the second part of the verse, the lead plays the same main riff while the rhythm 
guitarists palm mutes these same chords and plays them 8 times each:

    P.      P.     P.     P.
e|------------------------------|
B|------------------------------|
G|------------------------------|
D|--9-------7------7------5-----|
A|--9-x8----9-x8---7-x8---7-x8--|
E|------------------------------|

That's all for right now, will tab more later
Related for No More Heroes tab
×
Best way to learn
"No More Heroes"