Song name
# A B C D E F G H I J K L M N O P Q R S T U V W X Y Z

Slash - Not For Me tab

Intro

e|--------------------------------------------------------------------------|
B|--8-7-------6---10------6-5-------4----8-------4-3-------2----6-----------|
G|------7-----7----7----------5-----5----5-----------3-----3----3-----------|
D|7-------7---7----7----5-------5---5----5----3--------3---3----3-----------|
A|5---------------------3---------------------1-----------------------------|
E|--------------------------------------------------------------------------|

e|-1--3---------------------------------------------------------------------|
B|-1--3-----------------1---------1---1-------------------------------------|
G|-2--4--7-------7--7---2---------2---0---------------------3---------------|
D|-3--5--4-------4--4---3-----3-------2-----0-2-3-2------1------------------|
A|-3--5--6-------6------3-----3-------3---3---------3----1--1--1-0------6---|
E|-1--3--5----------------------------------------------------------3---5---|

Note : Chords are variations

Chorus (This is Not for Me ...... )

e|-2-2-3-2------------------------------------------------------------------|
B|-3-3-3-3----1----------------1--------------------------------------------|
G|-2-2-2-2----2------2-0-------0-------------------3----------7-------------|
D|------------3----------3-----2--2-3-2--------1--------------4-------------|
A|------------3--3-3-------3---3--------3------1---1--1-0-----6-------------|
E|--------------------------------------------------------3---5-------------|

......... I'm working the bridge n' solo 

....Sle@zexxx From Chile ;)
Tap to rate this tab
 
# A B C D E F G H I J K L M N O P Q R S T U V W X Y Z