Song name
# A B C D E F G H I J K L M N O P Q R S T U V W X Y Z

Slash - We Will Roam tab

 

Intro / Vers
         

Eb-------------------------------------------------------------------------|
Bb------0-0-0-0------------------------------------------------------------|
Gb------0-0-0-0-------4-4-4------------1-1-1------------1-1-1--------------|
Db------0-0-0-0-------4-4-4----0h2-----2-2-2----0h2-----2-2-2------0-------|
Ab----------------2-2--------0h2-------2-2-2--0h2-------2-2-2---0h2--------|
Eb--3-3----------------------------0-0--------------0-0--------------------|



Bridge

Eb---------------------------------------------------------0-0-0-0---------|
Bb------0-0-0-0--------------------------------------------3-3-3-3---------|
Gb------0-0-0-0-------4-4-4-----3-3-3-3------2-2-2-2-------0-0-0-0---------|
Db------0-0-0-0-------4-4-4-----3-3-3-3------2-2-2-2-------0-0-0-0---------|
Ab----------------2-2-------1-1----------0-0-------------------------------|
Eb--3-3------------------------------------------------3-3-----------------|


Eb-----------------0-0-0-0-0-0----0-0-0-0-0-0------------------------------|
Bb-----------------1-1-1-1-1-1----3-3-3-3-3-3------------------------------|
Gb-----------------0-0-0-0-0-0----2-2-2-2-2-2------------------------------|
Db-----3-3-3-3-----2-2-3-2-2-2----0-0-0-0-0-0------------------------------|
Ab-----3-3-3-3-----3-3-3-3-3-3----0-0-0-0-0-0------------------------------|
Eb-1-1---------------------------------------------------------------------|



Ref

Eb---0-0--------0-0-0---------------0-0-0----------------0-0-0-------------|
Bb---3-3--------3-3-3---------------0-0-0----------------0-0-0-------------|
Gb---0-0--------2-2-2---------------1-1-1----------------1-1-1-------------|
Db---0-0------0-----------0h2-------2-2-2-----0h2--------2-2-2-------------|
Ab---x-x----------------0h2---------2-2-2---0h2----------2-2-2-------------|
Eb---3-3--S/7------------------0-0------------------0-0--------------------|





Solo 1

Eb-----------------------------|-------------------------------------------|
Bb-----------------------------|-------------------------------------------|
Gb-10-9---------9--7-----------|---7---------------7-----------------------|
Db------10b-10---------9b-9----|-9---7b--5--7---5-7b--7b7---5-7-6b6--------|
Ab-----------------------------|------------------------------------7------|
Eb-----------------------------|-------------------------------------------|




Eb-----------------------------|---10------------------10------------------|
Bb-----------------------------|-10b--10b-8-10-10--8-10b--10b-8-10--9b9----|
Gb-----------------------------|----------------------------------------9--|
Db-----------------------------|-------------------------------------------|
Ab----5h7-------5-----------/7-|-------------------------------------------|
Eb--5h7-----5h7------5\3\0-----|-------------------------------------------|




Eb-------------------------------------------------------------------------|
Bb-------------------------------------------------------------------------|
Gb------9\7----------------------------------------------------------------|
Db--7h9-----------9\7------7---6-------------------------------------------|
Ab------------7h9--------7---9----7----------------------------------------|
Eb-------------------------------------------------------------------------|




Eb------12-----12----------------------------------------------------------|
Bb--12b/--\12b/--\12~~--10-12-----12---------------------------------------|
Gb----------------------------11b/--\11---9---11----9h11-9----11-----------|
Db------------------------------------------11--11----------11--11---------|
Ab-------------------------------------------------------------------------|
Eb-------------------------------------------------------------------------|



                                                 17-17
Eb-------------------------------12-----------17b-----\-15-17-15-17b-------|
Bb-------------------------------------15b---------------------------------|
Gb--9h11-9--------9h11-9---------------------------------------------------|
Db---------11--9---------11/14---------------------------------------------|
Ab-------------------------------------------------------------------------|
Eb-------------------------------------------------------------------------|




Eb-------------------------------------------------------------------------|
Bb-------------------18----------------------------------------------------|
Gb------15-17-15-17b/--\17-15-14--15-14h15p14--12-14-12b-12--10-12-10b-----|
Db-/17---------------------------------------------------------------------|
Ab-------------------------------------------------------------------------|
Eb-------------------------------------------------------------------------|




Eb-------------------------------------------------------------------------|
Bb--------------------------------------13---------------------------------|
Gb-10b-10-9-10-9b-9b9------------------------------------------------------|
Db--------------------10---------10-12b/--\12---10--12--10-----------------|
Ab----------------------10--10-12-----------------12--12-----12------------|
Eb-------------------------------------------------------------------------|




Eb-------------------------------------------------------------------------|
Bb--------------------------15---15---15-----------------------------------|
Gb-11b------------------------------------------REF------------------------|
Db----12-------------12-14b/---14---14-------------------------------------|
Ab------12-----12-14-------------------------------------------------------|
Eb-------------------------------------------------------------------------|







SOLO 2 

Eb--------------7-----------------7----------------------------------------|
Bb---------5--7/-\5---8-7~~---5-7/-\5---8-7h8p7--5h7-5h7p5---5-------------|
Gb-----4-7----------7-----------------7--------------------7----7/9--------|
Db-5-7---------------------------------------------------------------------|
Ab-------------------------------------------------------------------------|
Eb-------------------------------------------------------------------------|



                                                        PM~~~~~~~~~~~~~~~~~
Eb-----------------------------------|-------------------------------------|
Bb-----------------------------------|-------------------------------------|
Gb-9-7-------------------------------|-------------------------------------|
Db-----9--7b-5---7-5-----5-5---------|7b(7-7)5-4-5-4h5p4----4-----------5--|
Ab-------------7-----7-5-----7-5-----|--------------------7---7-5---5-7---7|
Eb-------------------------------7-0-|----------------------------7--------|




Eb---------------------------------------|---------------------------------|
Bb---------------------------------------|---------------------------------|
Gb---------------------------------------|------------------------7-9-7----|
Db--5b--------------5b-------------------|-----------------5-7/9-----------|
Ab-----7--5--7--5------7-5------------/7-|----------5~-5-7-----------------|
Eb---------------7---------7\5-7-5-0-----|-3-5--7-7------------------------|




Eb-------------------------------------------------------------------------|
Bb----------------------12-15-12-------------------------------------------|
Gb-7-9--12-14-12--14b------------15-14-12---15-16--12b---------------------|
Db---------------------------------------14------------14-12-14------------|
Ab-------------------------------------------------------------------------|
Eb-------------------------------------------------------------------------|




Eb----------------------------------14b(14-14)-12----14b-14-12~~-----------|
Bb-----12-12---------------------------------------------------------------|
Gb-14b/-14---12b----14b-12-14-12-------------------------------------------|
Db--------------14---------------------------------------------------------|
Ab-------------------------------------------------------------------------|
Eb-------------------------------------------------------------------------|




Eb---------13-12-----------------------------------------------------------|
Bb------15------13b-13--10b-10------------8--------------------------------|
Gb--/16------------------------11b-11--7b/-\7----------------7-------------|
Db---------------------------------------------------7b-5-7b/--------------|
Ab-------------------------------------------------------------------------|
Eb-------------------------------------------------------------------------|






Tap to rate this tab
# A B C D E F G H I J K L M N O P Q R S T U V W X Y Z