Song name
# A B C D E F G H I J K L M N O P Q R S T U V W X Y Z

Slash - Crazy Life tab

---------------------3-----------------|
-----------------5---3-----------------|
-------------4-7--4--------------------|
---------------------------------------|            X3
---------------------------------------|
---------------------------------------|
P.M---------------------------|


---------------------3-2-0-|
-----------------5---3-2-0-|
-------------4-7--4--------|
---------------------------|
---------------------------|
---------------------------|

(0:29)
---------------------------|
---------------------------|
---------------------------|
--2------------------------|
--2------------------------|
--0------------------------|

Let chord ring out


CHORUS

---   ---   ---   ---|
---   ---   ---   ---|
-6-   -2-   -0-   -4-|
-6-   -2-   -2-   -4-|      X3
-4-   -0-   -2-   -2-|
---   ---   -0-   ---|
Tap to rate this tab
 
# A B C D E F G H I J K L M N O P Q R S T U V W X Y Z