Song name
# A B C D E F G H I J K L M N O P Q R S T U V W X Y Z

Slash - Crazy Life tab

Artist: Slash
Song: Crazy Life
Album: Apocalyptic Love
Year: 2012
Tuning: Eb


*****************
Legend:         *
h hammer-on     *
p pull-off      *
~ let ring      *
*****************

Intro:
|------------------------------------------------------------|
|---------6---8--------6---8--------6---8--------6---8p7p5---|
|-----5h7---7------5h7---7------5h7---7------5h7---7---------|
|---0--------------------------------------------------------|
|------------------------------------------------------------|
|------------------------------------------------------------|

|----------------------|
|----------------------|
|--8-6---4-2-----4-8---|
|--8-6---4-2---5-4-8---|
|--6-4---2-0---5-2-6---|
|--------------3-------|



 Pre Verse:
|------------------------------------------------------------|
|---------6---8--------6---8--------6---8--------6---8p7p5---|
|-----5h7---7------5h7---7------5h7---7------5h7---7---------|
|---0--------------------------------------------------------|
|------------------------------------------------------------|
|------------------------------------------------------------|
|
|
|------------------------------------------------------------|
|------------------------------------------------------------|
|------------------------------------------------------------|
|---------3---5--------3---5--------3---5---5p3-5p3----------|
|-----3h5---5------3h5---5------3h5---5-------------5-3-2----|
|---0--------------------------------------------------------|



 Verse: (bass plays)
|-------|
|-------|
|-------|
|---2~~~|
|---2~~~|
|---0~~~|



|------------------------------------------------------------|
|------------------------------------------------------------|
|------------------------------------------------------------|
|---------3---5--------3---5--------3---5---5p3-5p3----------|
|-----3h5---5------3h5---5------3h5---5-------------5-3-2----|
|---0--------------------------------------------------------|



Chorus:
|------------------------------|
|------------------------------|
|---6--2-----4-----6--2-----4--|
|---6--2--3--4-----6--2--3--4--|
|---4--0--3--2-----4--0--3--2--|
|---------1--------------1--0--|

|------------------------------|
|------------------------------|
|---6--2-----4-----8-6-4-2-----|
|---6--2--3--4-----8-6-4-2-5---|
|---4--0--3--2-----6-4-2-0-5---|
|---------1----------------3---|


 Pre Verse:
|------------------------------------------------------------|
|---------6---8--------6---8--------6---8--------6---8p7p5---|
|-----5h7---7------5h7---7------5h7---7------5h7---7---------|
|---0--------------------------------------------------------|
|------------------------------------------------------------|
|------------------------------------------------------------|
|
|
|------------------------------------------------------------|
|------------------------------------------------------------|
|------------------------------------------------------------|
|---------3---5--------3---5--------3---5---5p3-5p3----------|
|-----3h5---5------3h5---5------3h5---5-------------5-3-2----|
|---0--------------------------------------------------------|



 Verse: (bass plays)
|-------|
|-------|
|-------|
|---2~~~|
|---2~~~|
|---0~~~|


|------------------------------------------------------------|
|------------------------------------------------------------|
|------------------------------------------------------------|
|---------3---5--------3---5--------3---5---5p3-5p3----------|
|-----3h5---5------3h5---5------3h5---5-------------5-3-2----|
|---0--------------------------------------------------------|



Chorus:
|------------------------------|
|------------------------------|
|---6--2-----4-----6--2-----4--|
|---6--2--3--4-----6--2--3--4--|
|---4--0--3--2-----4--0--3--2--|
|---------1--------------1--0--|

|------------------------------|
|------------------------------|
|---6--2-----4-----8-6-4-2-----|
|---6--2--3--4-----8-6-4-2-5---|
|---4--0--3--2-----6-4-2-0-5---|
|---------1----------------3---|


 Pre Solo: (no rhythm, just the chords)
|------------------------------|
|------------------------------|
|--------4---8-6-4-2-----------|
|--4--7--4---8-6-4-2-5---------|
|--4--7--2---6-4-2-0-5---------|
|--2--5--------------3---------|



 Solo 1: (Verse for rhythm)
|------------------------------|
|------------------------------|
|------------------------------|
|------------------------------|
|------------------------------|
|------------------------------|



 Solo 2: (Chorus for rhythm)
|------------------------------|
|------------------------------|
|------------------------------|
|------------------------------|
|------------------------------|
|------------------------------|



Chorus:
|------------------------------|
|------------------------------|
|---6--2-----4-----6--2-----4--|
|---6--2--3--4-----6--2--3--4--|
|---4--0--3--2-----4--0--3--2--|
|---------1--------------1--0--|

|------------------------------|
|------------------------------|
|---6--2-----4-----8-6-4-2-----|
|---6--2--3--4-----8-6-4-2-5---|
|---4--0--3--2-----6-4-2-0-5---|
|---------1----------------3---|



 Outro:
|------------------------------------------------------------|
|---------6---8--------6---8--------6---8--------6---8p7p5---|
|-----5h7---7------5h7---7------5h7---7------5h7---7---------|
|---0--------------------------------------------------------|
|------------------------------------------------------------|
|------------------------------------------------------------|
|
|
|------------------------------------------------------------|
|------------------------------------------------------------|
|------------------------------------------------------------|
|---------3---5--------3---5--------3---5---5p3-5p3----------|
|-----3h5---5------3h5---5------3h5---5-------------5-3-2----|
|---0--------------------------------------------------------|



|------------------------------------------------------------|
|---------6---8--------6---8--------6---8--------6---8p7p5---|
|-----5h7---7------5h7---7------5h7---7------5h7---7---------|
|---0--------------------------------------------------------|
|------------------------------------------------------------|
|------------------------------------------------------------|

|----------------------|
|----------------------|
|--8-6---4-2-----4-8---|
|--8-6---4-2---5-4-8---|
|--6-4---2-0---5-2-6---|
|--------------3-------|
Tap to rate this tab
 
# A B C D E F G H I J K L M N O P Q R S T U V W X Y Z