Song name
# A B C D E F G H I J K L M N O P Q R S T U V W X Y Z

Slash - Beggars And Hangers On Acoustic tab

Slash and Myles Kennedy
Beggars and Hangers On Acoustic and Live Solo
Tuning: C#,G#,C#,F,G#,C#

C#|----------------------------------------------------------------------------|
G#|--7/9-7h9-9/10-9--10-9-7/5--7-5---10-9-7/5-7/9-10--10-9-7/5-7/9-7br-7br-5---|
F |--------------------------------------------------------------------------6-|
C#|--------------------------------7-------------------------------------------|
G#|----------------------------------------------------------------------------|
C#|----------------------------------------------------------------------------|

C#|----------------------------10br-10b-10br-9-----------------|
G#|7/9-7h9-10-9--10-9-7/5-7-7------------------10--7br-5----7/9|
F |------------------------------------------------------6-----|
C#|------------------------------------------------------------|
G#|------------------------------------------------------------|
C#|------------------------------------------------------------|
Tap to rate this tab
# A B C D E F G H I J K L M N O P Q R S T U V W X Y Z